ISO-10303-21;
HEADER;
FILE_DESCRIPTION (( 'STEP AP203' ),
    '1' );
FILE_NAME ('HAUT.STEP',
    '2023-01-05T13:31:04',
    ( '' ),
    ( '' ),
    'SwSTEP 2.0',
    'SolidWorks 2020',
    '' );
FILE_SCHEMA (( 'CONFIG_CONTROL_DESIGN' ));
ENDSEC;

DATA;
#1 =( NAMED_UNIT ( * ) SI_UNIT ( $, .STERADIAN. ) SOLID_ANGLE_UNIT ( ) );
#2 = CC_DESIGN_SECURITY_CLASSIFICATION ( #89, ( #254 ) ) ;
#3 =( NAMED_UNIT ( * ) PLANE_ANGLE_UNIT ( ) SI_UNIT ( $, .RADIAN. ) );
#4 = APPLICATION_CONTEXT ( 'configuration controlled 3d designs of mechanical parts and assemblies' ) ;
#5 = DATE_AND_TIME ( #82, #201 ) ;
#6 = AXIS2_PLACEMENT_3D ( 'NONE', #97, #21, #178 ) ;
#7 = ORIENTED_EDGE ( 'NONE', *, *, #238, .F. ) ;
#8 = EDGE_CURVE ( 'NONE', #135, #93, #156, .T. ) ;
#9 = APPLICATION_CONTEXT ( 'configuration controlled 3d designs of mechanical parts and assemblies' ) ;
#10 = EDGE_LOOP ( 'NONE', ( #165, #51 ) ) ;
#11 = EDGE_LOOP ( 'NONE', ( #136, #192 ) ) ;
#12 = AXIS2_PLACEMENT_3D ( 'NONE', #232, #52, #57 ) ;
#13 = EDGE_CURVE ( 'NONE', #248, #106, #115, .T. ) ;
#14 = CARTESIAN_POINT ( 'NONE',  ( 11.00000000000000000, 1.347111479062088405E-15, 0.000000000000000000 ) ) ;
#15 = ORIENTED_EDGE ( 'NONE', *, *, #123, .F. ) ;
#16 = PLANE ( 'NONE',  #166 ) ;
#17 = DIRECTION ( 'NONE',  ( -1.000000000000000000, 0.000000000000000000, 0.000000000000000000 ) ) ;
#18 = CARTESIAN_POINT ( 'NONE',  ( 11.00000000000000000, 1.347111479062088405E-15, 2.000000000000000000 ) ) ;
#19 = DIRECTION ( 'NONE',  ( 1.000000000000000000, 0.000000000000000000, 0.000000000000000000 ) ) ;
#20 = PLANE ( 'NONE',  #234 ) ;
#21 = DIRECTION ( 'NONE',  ( -0.000000000000000000, -0.000000000000000000, -1.000000000000000000 ) ) ;
#22 = DIRECTION ( 'NONE',  ( -0.000000000000000000, -0.000000000000000000, -1.000000000000000000 ) ) ;
#23 = PERSON_AND_ORGANIZATION ( #202, #79 ) ;
#24 = ORIENTED_EDGE ( 'NONE', *, *, #8, .T. ) ;
#25 = DESIGN_CONTEXT ( 'detailed design', #9, 'design' ) ;
#26 = PERSON_AND_ORGANIZATION ( #202, #79 ) ;
#27 = PERSON_AND_ORGANIZATION ( #202, #79 ) ;
#28 = ADVANCED_BREP_SHAPE_REPRESENTATION ( 'HAUT', ( #187, #119 ), #184 ) ;
#29 = CIRCLE ( 'NONE', #222, 9.000000000000000000 ) ;
#30 = EDGE_CURVE ( 'NONE', #93, #208, #29, .T. ) ;
#31 = ADVANCED_FACE ( 'NONE', ( #116, #172 ), #209, .T. ) ;
#32 = DIRECTION ( 'NONE',  ( 0.000000000000000000, 0.000000000000000000, 1.000000000000000000 ) ) ;
#33 = FACE_OUTER_BOUND ( 'NONE', #213, .T. ) ;
#34 = CARTESIAN_POINT ( 'NONE',  ( -11.00000000000000000, 0.000000000000000000, 0.000000000000000000 ) ) ;
#35 = ORIENTED_EDGE ( 'NONE', *, *, #30, .F. ) ;
#36 = CARTESIAN_POINT ( 'NONE',  ( 0.000000000000000000, 0.000000000000000000, 2.000000000000000000 ) ) ;
#37 = APPROVAL_STATUS ( 'not_yet_approved' ) ;
#38 = ADVANCED_FACE ( 'NONE', ( #33 ), #96, .T. ) ;
#39 = CARTESIAN_POINT ( 'NONE',  ( 0.000000000000000000, 0.000000000000000000, 0.000000000000000000 ) ) ;
#40 = AXIS2_PLACEMENT_3D ( 'NONE', #39, #122, #66 ) ;
#41 = APPROVAL_PERSON_ORGANIZATION ( #128, #84, #104 ) ;
#42 = CARTESIAN_POINT ( 'NONE',  ( -11.00000000000000000, 0.000000000000000000, 2.000000000000000000 ) ) ;
#43 = DIRECTION ( 'NONE',  ( -1.000000000000000000, 0.000000000000000000, 0.000000000000000000 ) ) ;
#44 = CIRCLE ( 'NONE', #12, 11.00000000000000000 ) ;
#45 = COORDINATED_UNIVERSAL_TIME_OFFSET ( 1, 0, .AHEAD. ) ;
#46 = ORIENTED_EDGE ( 'NONE', *, *, #30, .T. ) ;
#47 = SECURITY_CLASSIFICATION_LEVEL ( 'unclassified' ) ;
#48 = EDGE_CURVE ( 'NONE', #53, #208, #186, .T. ) ;
#49 = DATE_AND_TIME ( #206, #85 ) ;
#50 = PERSON_AND_ORGANIZATION_ROLE ( 'classification_officer' ) ;
#51 = ORIENTED_EDGE ( 'NONE', *, *, #176, .F. ) ;
#52 = DIRECTION ( 'NONE',  ( 0.000000000000000000, 0.000000000000000000, 1.000000000000000000 ) ) ;
#53 = VERTEX_POINT ( 'NONE', #212 ) ;
#54 = CIRCLE ( 'NONE', #207, 9.000000000000000000 ) ;
#55 = ORIENTED_EDGE ( 'NONE', *, *, #13, .F. ) ;
#56 = ADVANCED_FACE ( 'NONE', ( #154 ), #77, .T. ) ;
#57 = DIRECTION ( 'NONE',  ( 1.000000000000000000, 0.000000000000000000, 0.000000000000000000 ) ) ;
#58 = PRODUCT_DEFINITION_SHAPE ( 'NONE', 'NONE',  #69 ) ;
#59 = ORIENTED_EDGE ( 'NONE', *, *, #13, .T. ) ;
#60 = VECTOR ( 'NONE', #211, 1000.000000000000000 ) ;
#61 = DIRECTION ( 'NONE',  ( 1.000000000000000000, 0.000000000000000000, 0.000000000000000000 ) ) ;
#62 = CC_DESIGN_PERSON_AND_ORGANIZATION_ASSIGNMENT ( #126, #87, ( #254 ) ) ;
#63 = DIRECTION ( 'NONE',  ( 0.000000000000000000, 0.000000000000000000, 1.000000000000000000 ) ) ;
#64 = CIRCLE ( 'NONE', #245, 9.000000000000000000 ) ;
#65 = APPROVAL_ROLE ( '' ) ;
#66 = DIRECTION ( 'NONE',  ( 1.000000000000000000, 0.000000000000000000, 0.000000000000000000 ) ) ;
#67 = DATE_AND_TIME ( #144, #229 ) ;
#68 = CIRCLE ( 'NONE', #40, 11.00000000000000000 ) ;
#69 = PRODUCT_DEFINITION ( 'UNKNOWN', '', #254, #25 ) ;
#70 = APPROVAL_DATE_TIME ( #5, #84 ) ;
#71 = VERTEX_POINT ( 'NONE', #34 ) ;
#72 = DIRECTION ( 'NONE',  ( -0.000000000000000000, -0.000000000000000000, -1.000000000000000000 ) ) ;
#73 = APPROVAL_PERSON_ORGANIZATION ( #26, #101, #223 ) ;
#74 = EDGE_CURVE ( 'NONE', #53, #135, #153, .T. ) ;
#75 = DIRECTION ( 'NONE',  ( 0.000000000000000000, 0.000000000000000000, 1.000000000000000000 ) ) ;
#76 = CARTESIAN_POINT ( 'NONE',  ( -9.000000000000000000, 0.000000000000000000, 2.000000000000000000 ) ) ;
#77 = CYLINDRICAL_SURFACE ( 'NONE', #141, 9.000000000000000000 ) ;
#78 = CC_DESIGN_DATE_AND_TIME_ASSIGNMENT ( #83, #244, ( #89 ) ) ;
#79 = ORGANIZATION ( 'UNSPECIFIED', 'UNSPECIFIED', '' ) ;
#80 = CARTESIAN_POINT ( 'NONE',  ( 9.000000000000000000, 1.102182119232617714E-15, 2.000000000000000000 ) ) ;
#81 = DIRECTION ( 'NONE',  ( 0.000000000000000000, 0.000000000000000000, 1.000000000000000000 ) ) ;
#82 = CALENDAR_DATE ( 2023, 5, 1 ) ;
#83 = DATE_AND_TIME ( #105, #107 ) ;
#84 = APPROVAL ( #205, 'UNSPECIFIED' ) ;
#85 = LOCAL_TIME ( 14, 31, 4.000000000000000000, #45 ) ;
#86 = ORIENTED_EDGE ( 'NONE', *, *, #176, .T. ) ;
#87 = PERSON_AND_ORGANIZATION_ROLE ( 'creator' ) ;
#88 = ORIENTED_EDGE ( 'NONE', *, *, #111, .F. ) ;
#89 = SECURITY_CLASSIFICATION ( '', '', #47 ) ;
#90 = DIRECTION ( 'NONE',  ( 0.000000000000000000, 0.000000000000000000, 1.000000000000000000 ) ) ;
#91 = CARTESIAN_POINT ( 'NONE',  ( 0.000000000000000000, 0.000000000000000000, 5.000000000000000000 ) ) ;
#92 = ADVANCED_FACE ( 'NONE', ( #189 ), #16, .T. ) ;
#93 = VERTEX_POINT ( 'NONE', #76 ) ;
#94 = AXIS2_PLACEMENT_3D ( 'NONE', #114, #173, #227 ) ;
#95 = DIRECTION ( 'NONE',  ( 1.000000000000000000, 0.000000000000000000, 0.000000000000000000 ) ) ;
#96 = CYLINDRICAL_SURFACE ( 'NONE', #249, 9.000000000000000000 ) ;
#97 = CARTESIAN_POINT ( 'NONE',  ( 0.000000000000000000, 0.000000000000000000, 2.000000000000000000 ) ) ;
#98 = AXIS2_PLACEMENT_3D ( 'NONE', #110, #90, #168 ) ;
#99 = CARTESIAN_POINT ( 'NONE',  ( 0.000000000000000000, 0.000000000000000000, 0.000000000000000000 ) ) ;
#100 = CARTESIAN_POINT ( 'NONE',  ( -11.00000000000000000, 0.000000000000000000, 2.000000000000000000 ) ) ;
#101 = APPROVAL ( #145, 'UNSPECIFIED' ) ;
#102 = DIRECTION ( 'NONE',  ( 1.000000000000000000, 0.000000000000000000, 0.000000000000000000 ) ) ;
#103 = EDGE_CURVE ( 'NONE', #71, #106, #44, .T. ) ;
#104 = APPROVAL_ROLE ( '' ) ;
#105 = CALENDAR_DATE ( 2023, 5, 1 ) ;
#106 = VERTEX_POINT ( 'NONE', #14 ) ;
#107 = LOCAL_TIME ( 14, 31, 4.000000000000000000, #108 ) ;
#108 = COORDINATED_UNIVERSAL_TIME_OFFSET ( 1, 0, .AHEAD. ) ;
#109 = AXIS2_PLACEMENT_3D ( 'NONE', #252, #32, #155 ) ;
#110 = CARTESIAN_POINT ( 'NONE',  ( 0.000000000000000000, 0.000000000000000000, 2.000000000000000000 ) ) ;
#111 = EDGE_CURVE ( 'NONE', #248, #138, #162, .T. ) ;
#112 = DIRECTION ( 'NONE',  ( -0.000000000000000000, -0.000000000000000000, -1.000000000000000000 ) ) ;
#113 = DATE_TIME_ROLE ( 'creation_date' ) ;
#114 = CARTESIAN_POINT ( 'NONE',  ( 0.000000000000000000, 0.000000000000000000, 5.000000000000000000 ) ) ;
#115 = LINE ( 'NONE', #18, #170 ) ;
#116 = FACE_BOUND ( 'NONE', #151, .T. ) ;
#117 = DIRECTION ( 'NONE',  ( 0.000000000000000000, 0.000000000000000000, 1.000000000000000000 ) ) ;
#118 = FACE_OUTER_BOUND ( 'NONE', #10, .T. ) ;
#119 = AXIS2_PLACEMENT_3D ( 'NONE', #235, #81, #61 ) ;
#120 = ADVANCED_FACE ( 'NONE', ( #255 ), #143, .T. ) ;
#121 = FACE_OUTER_BOUND ( 'NONE', #181, .T. ) ;
#122 = DIRECTION ( 'NONE',  ( 0.000000000000000000, 0.000000000000000000, 1.000000000000000000 ) ) ;
#123 = EDGE_CURVE ( 'NONE', #135, #53, #64, .T. ) ;
#124 = EDGE_LOOP ( 'NONE', ( #55, #129, #146, #149 ) ) ;
#125 = DATE_AND_TIME ( #241, #196 ) ;
#126 = PERSON_AND_ORGANIZATION ( #202, #79 ) ;
#127 = AXIS2_PLACEMENT_3D ( 'NONE', #158, #117, #198 ) ;
#128 = PERSON_AND_ORGANIZATION ( #202, #79 ) ;
#129 = ORIENTED_EDGE ( 'NONE', *, *, #230, .F. ) ;
#130 = CC_DESIGN_APPROVAL ( #84, ( #89 ) ) ;
#131 = DIRECTION ( 'NONE',  ( 0.000000000000000000, 0.000000000000000000, 1.000000000000000000 ) ) ;
#132 = CC_DESIGN_PERSON_AND_ORGANIZATION_ASSIGNMENT ( #27, #203, ( #69 ) ) ;
#133 = VECTOR ( 'NONE', #221, 1000.000000000000000 ) ;
#134 = CARTESIAN_POINT ( 'NONE',  ( -9.000000000000000000, 0.000000000000000000, 5.000000000000000000 ) ) ;
#135 = VERTEX_POINT ( 'NONE', #194 ) ;
#136 = ORIENTED_EDGE ( 'NONE', *, *, #123, .T. ) ;
#137 = CIRCLE ( 'NONE', #127, 11.00000000000000000 ) ;
#138 = VERTEX_POINT ( 'NONE', #100 ) ;
#139 = CYLINDRICAL_SURFACE ( 'NONE', #6, 11.00000000000000000 ) ;
#140 = CARTESIAN_POINT ( 'NONE',  ( 0.000000000000000000, 0.000000000000000000, 5.000000000000000000 ) ) ;
#141 = AXIS2_PLACEMENT_3D ( 'NONE', #231, #185, #17 ) ;
#142 = CARTESIAN_POINT ( 'NONE',  ( 0.000000000000000000, 0.000000000000000000, 2.000000000000000000 ) ) ;
#143 = CYLINDRICAL_SURFACE ( 'NONE', #174, 11.00000000000000000 ) ;
#144 = CALENDAR_DATE ( 2023, 5, 1 ) ;
#145 = APPROVAL_STATUS ( 'not_yet_approved' ) ;
#146 = ORIENTED_EDGE ( 'NONE', *, *, #238, .T. ) ;
#147 = CC_DESIGN_DATE_AND_TIME_ASSIGNMENT ( #125, #113, ( #69 ) ) ;
#148 = COORDINATED_UNIVERSAL_TIME_OFFSET ( 1, 0, .AHEAD. ) ;
#149 = ORIENTED_EDGE ( 'NONE', *, *, #103, .T. ) ;
#150 = COORDINATED_UNIVERSAL_TIME_OFFSET ( 1, 0, .AHEAD. ) ;
#151 = EDGE_LOOP ( 'NONE', ( #35, #183 ) ) ;
#152 = ORIENTED_EDGE ( 'NONE', *, *, #111, .T. ) ;
#153 = CIRCLE ( 'NONE', #94, 9.000000000000000000 ) ;
#154 = FACE_OUTER_BOUND ( 'NONE', #228, .T. ) ;
#155 = DIRECTION ( 'NONE',  ( 1.000000000000000000, 0.000000000000000000, -0.000000000000000000 ) ) ;
#156 = LINE ( 'NONE', #134, #60 ) ;
#157 = VECTOR ( 'NONE', #72, 1000.000000000000000 ) ;
#158 = CARTESIAN_POINT ( 'NONE',  ( 0.000000000000000000, 0.000000000000000000, 2.000000000000000000 ) ) ;
#159 = MECHANICAL_CONTEXT ( 'NONE', #4, 'mechanical' ) ;
#160 = PERSON_AND_ORGANIZATION ( #202, #79 ) ;
#161 = PERSON_AND_ORGANIZATION ( #202, #79 ) ;
#162 = CIRCLE ( 'NONE', #98, 11.00000000000000000 ) ;
#163 = ORIENTED_EDGE ( 'NONE', *, *, #74, .F. ) ;
#164 = ADVANCED_FACE ( 'NONE', ( #118 ), #20, .F. ) ;
#165 = ORIENTED_EDGE ( 'NONE', *, *, #103, .F. ) ;
#166 = AXIS2_PLACEMENT_3D ( 'NONE', #250, #75, #233 ) ;
#167 = EDGE_CURVE ( 'NONE', #208, #93, #54, .T. ) ;
#168 = DIRECTION ( 'NONE',  ( 1.000000000000000000, 0.000000000000000000, 0.000000000000000000 ) ) ;
#169 = ORIENTED_EDGE ( 'NONE', *, *, #167, .T. ) ;
#170 = VECTOR ( 'NONE', #214, 1000.000000000000000 ) ;
#171 = CARTESIAN_POINT ( 'NONE',  ( 9.000000000000000000, 1.102182119232617714E-15, 5.000000000000000000 ) ) ;
#172 = FACE_OUTER_BOUND ( 'NONE', #251, .T. ) ;
#173 = DIRECTION ( 'NONE',  ( 0.000000000000000000, 0.000000000000000000, 1.000000000000000000 ) ) ;
#174 = AXIS2_PLACEMENT_3D ( 'NONE', #142, #22, #43 ) ;
#175 =( LENGTH_UNIT ( ) NAMED_UNIT ( * ) SI_UNIT ( .MILLI., .METRE. ) );
#176 = EDGE_CURVE ( 'NONE', #106, #71, #68, .T. ) ;
#177 = LINE ( 'NONE', #42, #133 ) ;
#178 = DIRECTION ( 'NONE',  ( -1.000000000000000000, 0.000000000000000000, 0.000000000000000000 ) ) ;
#179 = APPROVAL_DATE_TIME ( #67, #101 ) ;
#180 = COORDINATED_UNIVERSAL_TIME_OFFSET ( 1, 0, .AHEAD. ) ;
#181 = EDGE_LOOP ( 'NONE', ( #88, #59, #86, #7 ) ) ;
#182 = ORIENTED_EDGE ( 'NONE', *, *, #230, .T. ) ;
#183 = ORIENTED_EDGE ( 'NONE', *, *, #167, .F. ) ;
#184 =( GEOMETRIC_REPRESENTATION_CONTEXT ( 3 ) GLOBAL_UNCERTAINTY_ASSIGNED_CONTEXT ( ( #195 ) ) GLOBAL_UNIT_ASSIGNED_CONTEXT ( ( #175, #3, #1 ) ) REPRESENTATION_CONTEXT ( 'NONE', 'WORKASPACE' ) );
#185 = DIRECTION ( 'NONE',  ( -0.000000000000000000, -0.000000000000000000, -1.000000000000000000 ) ) ;
#186 = LINE ( 'NONE', #171, #157 ) ;
#187 = MANIFOLD_SOLID_BREP ( 'Boss.-Extru.2', #239 ) ;
#188 = APPROVAL_DATE_TIME ( #49, #242 ) ;
#189 = FACE_OUTER_BOUND ( 'NONE', #11, .T. ) ;
#190 = CC_DESIGN_PERSON_AND_ORGANIZATION_ASSIGNMENT ( #160, #197, ( #253 ) ) ;
#191 = DIRECTION ( 'NONE',  ( -1.000000000000000000, 0.000000000000000000, 0.000000000000000000 ) ) ;
#192 = ORIENTED_EDGE ( 'NONE', *, *, #74, .T. ) ;
#193 = CC_DESIGN_PERSON_AND_ORGANIZATION_ASSIGNMENT ( #23, #226, ( #254 ) ) ;
#194 = CARTESIAN_POINT ( 'NONE',  ( -9.000000000000000000, 0.000000000000000000, 5.000000000000000000 ) ) ;
#195 = UNCERTAINTY_MEASURE_WITH_UNIT (LENGTH_MEASURE( 1.000000000000000082E-05 ), #175, 'distance_accuracy_value', 'NONE');
#196 = LOCAL_TIME ( 14, 31, 4.000000000000000000, #148 ) ;
#197 = PERSON_AND_ORGANIZATION_ROLE ( 'design_owner' ) ;
#198 = DIRECTION ( 'NONE',  ( 1.000000000000000000, 0.000000000000000000, 0.000000000000000000 ) ) ;
#199 = DIRECTION ( 'NONE',  ( 0.000000000000000000, 0.000000000000000000, 1.000000000000000000 ) ) ;
#200 = CC_DESIGN_APPROVAL ( #242, ( #69 ) ) ;
#201 = LOCAL_TIME ( 14, 31, 4.000000000000000000, #180 ) ;
#202 = PERSON ( 'UNSPECIFIED', 'UNSPECIFIED', 'UNSPECIFIED', ('UNSPECIFIED'), ('UNSPECIFIED'), ('UNSPECIFIED') ) ;
#203 = PERSON_AND_ORGANIZATION_ROLE ( 'creator' ) ;
#204 = PRODUCT_RELATED_PRODUCT_CATEGORY ( 'detail', '', ( #253 ) ) ;
#205 = APPROVAL_STATUS ( 'not_yet_approved' ) ;
#206 = CALENDAR_DATE ( 2023, 5, 1 ) ;
#207 = AXIS2_PLACEMENT_3D ( 'NONE', #236, #63, #19 ) ;
#208 = VERTEX_POINT ( 'NONE', #80 ) ;
#209 = PLANE ( 'NONE',  #109 ) ;
#210 = APPROVAL_PERSON_ORGANIZATION ( #216, #242, #65 ) ;
#211 = DIRECTION ( 'NONE',  ( -0.000000000000000000, -0.000000000000000000, -1.000000000000000000 ) ) ;
#212 = CARTESIAN_POINT ( 'NONE',  ( 9.000000000000000000, 1.102182119232617714E-15, 5.000000000000000000 ) ) ;
#213 = EDGE_LOOP ( 'NONE', ( #246, #15, #24, #46 ) ) ;
#214 = DIRECTION ( 'NONE',  ( -0.000000000000000000, -0.000000000000000000, -1.000000000000000000 ) ) ;
#215 = CC_DESIGN_PERSON_AND_ORGANIZATION_ASSIGNMENT ( #161, #50, ( #89 ) ) ;
#216 = PERSON_AND_ORGANIZATION ( #202, #79 ) ;
#217 = CARTESIAN_POINT ( 'NONE',  ( 11.00000000000000000, 1.347111479062088405E-15, 2.000000000000000000 ) ) ;
#218 = CC_DESIGN_APPROVAL ( #101, ( #254 ) ) ;
#219 = DIRECTION ( 'NONE',  ( 0.000000000000000000, 0.000000000000000000, 1.000000000000000000 ) ) ;
#220 = DIRECTION ( 'NONE',  ( 1.000000000000000000, 0.000000000000000000, -0.000000000000000000 ) ) ;
#221 = DIRECTION ( 'NONE',  ( -0.000000000000000000, -0.000000000000000000, -1.000000000000000000 ) ) ;
#222 = AXIS2_PLACEMENT_3D ( 'NONE', #36, #131, #95 ) ;
#223 = APPROVAL_ROLE ( '' ) ;
#224 = ORIENTED_EDGE ( 'NONE', *, *, #48, .T. ) ;
#225 = ORIENTED_EDGE ( 'NONE', *, *, #8, .F. ) ;
#226 = PERSON_AND_ORGANIZATION_ROLE ( 'design_supplier' ) ;
#227 = DIRECTION ( 'NONE',  ( 1.000000000000000000, 0.000000000000000000, 0.000000000000000000 ) ) ;
#228 = EDGE_LOOP ( 'NONE', ( #163, #224, #169, #225 ) ) ;
#229 = LOCAL_TIME ( 14, 31, 4.000000000000000000, #150 ) ;
#230 = EDGE_CURVE ( 'NONE', #138, #248, #137, .T. ) ;
#231 = CARTESIAN_POINT ( 'NONE',  ( 0.000000000000000000, 0.000000000000000000, 5.000000000000000000 ) ) ;
#232 = CARTESIAN_POINT ( 'NONE',  ( 0.000000000000000000, 0.000000000000000000, 0.000000000000000000 ) ) ;
#233 = DIRECTION ( 'NONE',  ( 1.000000000000000000, 0.000000000000000000, -0.000000000000000000 ) ) ;
#234 = AXIS2_PLACEMENT_3D ( 'NONE', #99, #219, #220 ) ;
#235 = CARTESIAN_POINT ( 'NONE',  ( 0.000000000000000000, 0.000000000000000000, 0.000000000000000000 ) ) ;
#236 = CARTESIAN_POINT ( 'NONE',  ( 0.000000000000000000, 0.000000000000000000, 2.000000000000000000 ) ) ;
#237 = APPLICATION_PROTOCOL_DEFINITION ( 'international standard', 'config_control_design', 1994, #4 ) ;
#238 = EDGE_CURVE ( 'NONE', #138, #71, #177, .T. ) ;
#239 = CLOSED_SHELL ( 'NONE', ( #56, #247, #120, #31, #164, #38, #92 ) ) ;
#240 = APPLICATION_PROTOCOL_DEFINITION ( 'international standard', 'config_control_design', 1994, #9 ) ;
#241 = CALENDAR_DATE ( 2023, 5, 1 ) ;
#242 = APPROVAL ( #37, 'UNSPECIFIED' ) ;
#243 = SHAPE_DEFINITION_REPRESENTATION ( #58, #28 ) ;
#244 = DATE_TIME_ROLE ( 'classification_date' ) ;
#245 = AXIS2_PLACEMENT_3D ( 'NONE', #140, #199, #102 ) ;
#246 = ORIENTED_EDGE ( 'NONE', *, *, #48, .F. ) ;
#247 = ADVANCED_FACE ( 'NONE', ( #121 ), #139, .T. ) ;
#248 = VERTEX_POINT ( 'NONE', #217 ) ;
#249 = AXIS2_PLACEMENT_3D ( 'NONE', #91, #112, #191 ) ;
#250 = CARTESIAN_POINT ( 'NONE',  ( 0.000000000000000000, 0.000000000000000000, 5.000000000000000000 ) ) ;
#251 = EDGE_LOOP ( 'NONE', ( #182, #152 ) ) ;
#252 = CARTESIAN_POINT ( 'NONE',  ( 0.000000000000000000, 0.000000000000000000, 2.000000000000000000 ) ) ;
#253 = PRODUCT ( 'HAUT', 'HAUT', '', ( #159 ) ) ;
#254 = PRODUCT_DEFINITION_FORMATION_WITH_SPECIFIED_SOURCE ( 'ANY', '', #253, .NOT_KNOWN. ) ;
#255 = FACE_OUTER_BOUND ( 'NONE', #124, .T. ) ;
ENDSEC;
END-ISO-10303-21;
