ISO-10303-21;
HEADER;
/* Generated by software containing ST-Developer
 * from STEP Tools, Inc. (www.steptools.com) 
 */

FILE_DESCRIPTION(
/* description */ (''),
/* implementation_level */ '2;1');

FILE_NAME(
/* name */ 'cale kia v3.step',
/* time_stamp */ '2023-02-21T14:57:25+01:00',
/* author */ (''),
/* organization */ (''),
/* preprocessor_version */ 'ST-DEVELOPER v19.2',
/* originating_system */ 'Autodesk Translation Framework v11.17.0.187',

/* authorisation */ '');

FILE_SCHEMA (('AUTOMOTIVE_DESIGN { 1 0 10303 214 3 1 1 }'));
ENDSEC;

DATA;
#10=MECHANICAL_DESIGN_GEOMETRIC_PRESENTATION_REPRESENTATION('',(#13),#302);
#11=SHAPE_REPRESENTATION_RELATIONSHIP('SRR','None',#309,#12);
#12=ADVANCED_BREP_SHAPE_REPRESENTATION('',(#14),#301);
#13=STYLED_ITEM('',(#318),#14);
#14=MANIFOLD_SOLID_BREP('Corps1',#160);
#15=FACE_BOUND('',#59,.T.);
#16=FACE_BOUND('',#62,.T.);
#17=FACE_BOUND('',#65,.T.);
#18=FACE_BOUND('',#67,.T.);
#19=PLANE('',#181);
#20=PLANE('',#182);
#21=PLANE('',#189);
#22=PLANE('',#193);
#23=PLANE('',#197);
#24=PLANE('',#198);
#25=LINE('',#268,#30);
#26=LINE('',#275,#31);
#27=LINE('',#281,#32);
#28=LINE('',#288,#33);
#29=LINE('',#295,#34);
#30=VECTOR('',#215,63.5);
#31=VECTOR('',#224,41.);
#32=VECTOR('',#231,85.);
#33=VECTOR('',#240,85.);
#34=VECTOR('',#249,92.5);
#35=CYLINDRICAL_SURFACE('',#179,63.5);
#36=CYLINDRICAL_SURFACE('',#184,41.);
#37=CYLINDRICAL_SURFACE('',#186,85.);
#38=CYLINDRICAL_SURFACE('',#190,85.);
#39=CYLINDRICAL_SURFACE('',#195,92.5);
#40=FACE_OUTER_BOUND('',#52,.T.);
#41=FACE_OUTER_BOUND('',#53,.T.);
#42=FACE_OUTER_BOUND('',#54,.T.);
#43=FACE_OUTER_BOUND('',#55,.T.);
#44=FACE_OUTER_BOUND('',#56,.T.);
#45=FACE_OUTER_BOUND('',#57,.T.);
#46=FACE_OUTER_BOUND('',#58,.T.);
#47=FACE_OUTER_BOUND('',#60,.T.);
#48=FACE_OUTER_BOUND('',#61,.T.);
#49=FACE_OUTER_BOUND('',#63,.T.);
#50=FACE_OUTER_BOUND('',#64,.T.);
#51=FACE_OUTER_BOUND('',#66,.T.);
#52=EDGE_LOOP('',(#111,#112,#113,#114,#115));
#53=EDGE_LOOP('',(#116,#117,#118,#119,#120));
#54=EDGE_LOOP('',(#121));
#55=EDGE_LOOP('',(#122));
#56=EDGE_LOOP('',(#123,#124,#125,#126));
#57=EDGE_LOOP('',(#127,#128,#129,#130));
#58=EDGE_LOOP('',(#131));
#59=EDGE_LOOP('',(#132));
#60=EDGE_LOOP('',(#133,#134,#135,#136));
#61=EDGE_LOOP('',(#137));
#62=EDGE_LOOP('',(#138));
#63=EDGE_LOOP('',(#139,#140,#141,#142));
#64=EDGE_LOOP('',(#143));
#65=EDGE_LOOP('',(#144));
#66=EDGE_LOOP('',(#145));
#67=EDGE_LOOP('',(#146));
#68=CIRCLE('',#175,38.5);
#69=CIRCLE('',#176,25.);
#70=CIRCLE('',#177,63.5);
#71=CIRCLE('',#178,63.5);
#72=CIRCLE('',#180,63.5);
#73=CIRCLE('',#183,41.);
#74=CIRCLE('',#185,41.);
#75=CIRCLE('',#187,85.);
#76=CIRCLE('',#188,85.);
#77=CIRCLE('',#191,85.);
#78=CIRCLE('',#192,85.);
#79=CIRCLE('',#194,92.5);
#80=CIRCLE('',#196,92.5);
#81=VERTEX_POINT('',#258);
#82=VERTEX_POINT('',#260);
#83=VERTEX_POINT('',#262);
#84=VERTEX_POINT('',#266);
#85=VERTEX_POINT('',#271);
#86=VERTEX_POINT('',#274);
#87=VERTEX_POINT('',#278);
#88=VERTEX_POINT('',#280);
#89=VERTEX_POINT('',#285);
#90=VERTEX_POINT('',#287);
#91=VERTEX_POINT('',#291);
#92=VERTEX_POINT('',#294);
#93=EDGE_CURVE('',#81,#81,#68,.T.);
#94=EDGE_CURVE('',#81,#82,#69,.T.);
#95=EDGE_CURVE('',#82,#83,#70,.T.);
#96=EDGE_CURVE('',#83,#82,#71,.T.);
#97=EDGE_CURVE('',#84,#84,#72,.T.);
#98=EDGE_CURVE('',#84,#83,#25,.T.);
#99=EDGE_CURVE('',#85,#85,#73,.T.);
#100=EDGE_CURVE('',#85,#86,#26,.T.);
#101=EDGE_CURVE('',#86,#86,#74,.T.);
#102=EDGE_CURVE('',#87,#87,#75,.T.);
#103=EDGE_CURVE('',#87,#88,#27,.T.);
#104=EDGE_CURVE('',#88,#88,#76,.T.);
#105=EDGE_CURVE('',#89,#89,#77,.T.);
#106=EDGE_CURVE('',#89,#90,#28,.T.);
#107=EDGE_CURVE('',#90,#90,#78,.T.);
#108=EDGE_CURVE('',#91,#91,#79,.T.);
#109=EDGE_CURVE('',#91,#92,#29,.T.);
#110=EDGE_CURVE('',#92,#92,#80,.T.);
#111=ORIENTED_EDGE('',*,*,#93,.T.);
#112=ORIENTED_EDGE('',*,*,#94,.T.);
#113=ORIENTED_EDGE('',*,*,#95,.T.);
#114=ORIENTED_EDGE('',*,*,#96,.T.);
#115=ORIENTED_EDGE('',*,*,#94,.F.);
#116=ORIENTED_EDGE('',*,*,#97,.F.);
#117=ORIENTED_EDGE('',*,*,#98,.T.);
#118=ORIENTED_EDGE('',*,*,#95,.F.);
#119=ORIENTED_EDGE('',*,*,#96,.F.);
#120=ORIENTED_EDGE('',*,*,#98,.F.);
#121=ORIENTED_EDGE('',*,*,#93,.F.);
#122=ORIENTED_EDGE('',*,*,#99,.T.);
#123=ORIENTED_EDGE('',*,*,#99,.F.);
#124=ORIENTED_EDGE('',*,*,#100,.T.);
#125=ORIENTED_EDGE('',*,*,#101,.F.);
#126=ORIENTED_EDGE('',*,*,#100,.F.);
#127=ORIENTED_EDGE('',*,*,#102,.F.);
#128=ORIENTED_EDGE('',*,*,#103,.T.);
#129=ORIENTED_EDGE('',*,*,#104,.T.);
#130=ORIENTED_EDGE('',*,*,#103,.F.);
#131=ORIENTED_EDGE('',*,*,#104,.F.);
#132=ORIENTED_EDGE('',*,*,#101,.T.);
#133=ORIENTED_EDGE('',*,*,#105,.F.);
#134=ORIENTED_EDGE('',*,*,#106,.T.);
#135=ORIENTED_EDGE('',*,*,#107,.T.);
#136=ORIENTED_EDGE('',*,*,#106,.F.);
#137=ORIENTED_EDGE('',*,*,#108,.F.);
#138=ORIENTED_EDGE('',*,*,#107,.F.);
#139=ORIENTED_EDGE('',*,*,#108,.T.);
#140=ORIENTED_EDGE('',*,*,#109,.T.);
#141=ORIENTED_EDGE('',*,*,#110,.T.);
#142=ORIENTED_EDGE('',*,*,#109,.F.);
#143=ORIENTED_EDGE('',*,*,#105,.T.);
#144=ORIENTED_EDGE('',*,*,#97,.T.);
#145=ORIENTED_EDGE('',*,*,#110,.F.);
#146=ORIENTED_EDGE('',*,*,#102,.T.);
#147=TOROIDAL_SURFACE('',#174,38.5,25.);
#148=ADVANCED_FACE('',(#40),#147,.F.);
#149=ADVANCED_FACE('',(#41),#35,.F.);
#150=ADVANCED_FACE('',(#42),#19,.T.);
#151=ADVANCED_FACE('',(#43),#20,.T.);
#152=ADVANCED_FACE('',(#44),#36,.T.);
#153=ADVANCED_FACE('',(#45),#37,.F.);
#154=ADVANCED_FACE('',(#46,#15),#21,.T.);
#155=ADVANCED_FACE('',(#47),#38,.T.);
#156=ADVANCED_FACE('',(#48,#16),#22,.T.);
#157=ADVANCED_FACE('',(#49),#39,.T.);
#158=ADVANCED_FACE('',(#50,#17),#23,.T.);
#159=ADVANCED_FACE('',(#51,#18),#24,.F.);
#160=CLOSED_SHELL('',(#148,#149,#150,#151,#152,#153,#154,#155,#156,#157,
#158,#159));
#161=DERIVED_UNIT_ELEMENT(#163,1.);
#162=DERIVED_UNIT_ELEMENT(#304,-3.);
#163=(
MASS_UNIT()
NAMED_UNIT(*)
SI_UNIT(.KILO.,.GRAM.)
);
#164=DERIVED_UNIT((#161,#162));
#165=MEASURE_REPRESENTATION_ITEM('density measure',
POSITIVE_RATIO_MEASURE(7850.),#164);
#166=PROPERTY_DEFINITION_REPRESENTATION(#171,#168);
#167=PROPERTY_DEFINITION_REPRESENTATION(#172,#169);
#168=REPRESENTATION('material name',(#170),#301);
#169=REPRESENTATION('density',(#165),#301);
#170=DESCRIPTIVE_REPRESENTATION_ITEM('Acier','Acier');
#171=PROPERTY_DEFINITION('material property','material name',#311);
#172=PROPERTY_DEFINITION('material property','density of part',#311);
#173=AXIS2_PLACEMENT_3D('placement',#256,#199,#200);
#174=AXIS2_PLACEMENT_3D('',#257,#201,#202);
#175=AXIS2_PLACEMENT_3D('',#259,#203,#204);
#176=AXIS2_PLACEMENT_3D('',#261,#205,#206);
#177=AXIS2_PLACEMENT_3D('',#263,#207,#208);
#178=AXIS2_PLACEMENT_3D('',#264,#209,#210);
#179=AXIS2_PLACEMENT_3D('',#265,#211,#212);
#180=AXIS2_PLACEMENT_3D('',#267,#213,#214);
#181=AXIS2_PLACEMENT_3D('',#269,#216,#217);
#182=AXIS2_PLACEMENT_3D('',#270,#218,#219);
#183=AXIS2_PLACEMENT_3D('',#272,#220,#221);
#184=AXIS2_PLACEMENT_3D('',#273,#222,#223);
#185=AXIS2_PLACEMENT_3D('',#276,#225,#226);
#186=AXIS2_PLACEMENT_3D('',#277,#227,#228);
#187=AXIS2_PLACEMENT_3D('',#279,#229,#230);
#188=AXIS2_PLACEMENT_3D('',#282,#232,#233);
#189=AXIS2_PLACEMENT_3D('',#283,#234,#235);
#190=AXIS2_PLACEMENT_3D('',#284,#236,#237);
#191=AXIS2_PLACEMENT_3D('',#286,#238,#239);
#192=AXIS2_PLACEMENT_3D('',#289,#241,#242);
#193=AXIS2_PLACEMENT_3D('',#290,#243,#244);
#194=AXIS2_PLACEMENT_3D('',#292,#245,#246);
#195=AXIS2_PLACEMENT_3D('',#293,#247,#248);
#196=AXIS2_PLACEMENT_3D('',#296,#250,#251);
#197=AXIS2_PLACEMENT_3D('',#297,#252,#253);
#198=AXIS2_PLACEMENT_3D('',#298,#254,#255);
#199=DIRECTION('axis',(0.,0.,1.));
#200=DIRECTION('refdir',(1.,0.,0.));
#201=DIRECTION('center_axis',(0.,-1.,0.));
#202=DIRECTION('ref_axis',(0.,0.,-1.));
#203=DIRECTION('center_axis',(0.,-1.,0.));
#204=DIRECTION('ref_axis',(-1.,0.,0.));
#205=DIRECTION('center_axis',(-1.,0.,-1.22464679914735E-16));
#206=DIRECTION('ref_axis',(-1.22464679914735E-16,0.,1.));
#207=DIRECTION('center_axis',(0.,1.,0.));
#208=DIRECTION('ref_axis',(-1.,0.,0.));
#209=DIRECTION('center_axis',(0.,1.,0.));
#210=DIRECTION('ref_axis',(-1.,0.,0.));
#211=DIRECTION('center_axis',(0.,-1.,0.));
#212=DIRECTION('ref_axis',(-1.,0.,0.));
#213=DIRECTION('center_axis',(0.,-1.,0.));
#214=DIRECTION('ref_axis',(-1.,0.,0.));
#215=DIRECTION('',(0.,-1.,0.));
#216=DIRECTION('center_axis',(0.,1.,0.));
#217=DIRECTION('ref_axis',(-1.,0.,0.));
#218=DIRECTION('center_axis',(0.,-1.,0.));
#219=DIRECTION('ref_axis',(1.,0.,0.));
#220=DIRECTION('center_axis',(0.,-1.,0.));
#221=DIRECTION('ref_axis',(1.,0.,0.));
#222=DIRECTION('center_axis',(0.,-1.,0.));
#223=DIRECTION('ref_axis',(1.,0.,0.));
#224=DIRECTION('',(0.,1.,0.));
#225=DIRECTION('center_axis',(0.,1.,0.));
#226=DIRECTION('ref_axis',(1.,0.,0.));
#227=DIRECTION('center_axis',(0.,1.,0.));
#228=DIRECTION('ref_axis',(1.,0.,0.));
#229=DIRECTION('center_axis',(0.,1.,0.));
#230=DIRECTION('ref_axis',(1.,0.,0.));
#231=DIRECTION('',(0.,1.,0.));
#232=DIRECTION('center_axis',(0.,1.,0.));
#233=DIRECTION('ref_axis',(1.,0.,0.));
#234=DIRECTION('center_axis',(0.,-1.,0.));
#235=DIRECTION('ref_axis',(1.,0.,0.));
#236=DIRECTION('center_axis',(0.,-1.,0.));
#237=DIRECTION('ref_axis',(-1.,0.,0.));
#238=DIRECTION('center_axis',(0.,1.,0.));
#239=DIRECTION('ref_axis',(-1.,0.,0.));
#240=DIRECTION('',(0.,-1.,0.));
#241=DIRECTION('center_axis',(0.,1.,0.));
#242=DIRECTION('ref_axis',(-1.,0.,0.));
#243=DIRECTION('center_axis',(0.,1.,0.));
#244=DIRECTION('ref_axis',(-1.,0.,0.));
#245=DIRECTION('center_axis',(0.,-1.,0.));
#246=DIRECTION('ref_axis',(1.,0.,0.));
#247=DIRECTION('center_axis',(0.,1.,0.));
#248=DIRECTION('ref_axis',(1.,0.,0.));
#249=DIRECTION('',(0.,-1.,0.));
#250=DIRECTION('center_axis',(0.,1.,0.));
#251=DIRECTION('ref_axis',(1.,0.,0.));
#252=DIRECTION('center_axis',(0.,1.,0.));
#253=DIRECTION('ref_axis',(1.,0.,0.));
#254=DIRECTION('center_axis',(0.,1.,0.));
#255=DIRECTION('ref_axis',(1.,0.,0.));
#256=CARTESIAN_POINT('',(0.,0.,0.));
#257=CARTESIAN_POINT('Origin',(0.,70.,0.));
#258=CARTESIAN_POINT('',(-4.71489017671731E-15,45.,38.5));
#259=CARTESIAN_POINT('Origin',(0.,45.,0.));
#260=CARTESIAN_POINT('',(-7.77650717458569E-15,70.,63.5));
#261=CARTESIAN_POINT('Origin',(-4.71489017671731E-15,70.,38.5));
#262=CARTESIAN_POINT('',(63.5,70.,-7.77650717458569E-15));
#263=CARTESIAN_POINT('Origin',(0.,70.,0.));
#264=CARTESIAN_POINT('Origin',(0.,70.,0.));
#265=CARTESIAN_POINT('Origin',(0.,75.,0.));
#266=CARTESIAN_POINT('',(63.5,75.,-7.77650717458569E-15));
#267=CARTESIAN_POINT('Origin',(0.,75.,0.));
#268=CARTESIAN_POINT('',(63.5,75.,7.77650717458569E-15));
#269=CARTESIAN_POINT('Origin',(0.,45.,0.));
#270=CARTESIAN_POINT('Origin',(0.,-15.,0.));
#271=CARTESIAN_POINT('',(-41.,-15.,-5.02105187650415E-15));
#272=CARTESIAN_POINT('Origin',(0.,-15.,0.));
#273=CARTESIAN_POINT('Origin',(0.,20.,0.));
#274=CARTESIAN_POINT('',(-41.,20.,-5.02105187650415E-15));
#275=CARTESIAN_POINT('',(-41.,20.,-5.02105187650415E-15));
#276=CARTESIAN_POINT('Origin',(0.,20.,0.));
#277=CARTESIAN_POINT('Origin',(0.,0.,0.));
#278=CARTESIAN_POINT('',(-85.,0.,-1.04094977927525E-14));
#279=CARTESIAN_POINT('Origin',(0.,0.,0.));
#280=CARTESIAN_POINT('',(-85.,20.,-1.04094977927525E-14));
#281=CARTESIAN_POINT('',(-85.,0.,1.04094977927525E-14));
#282=CARTESIAN_POINT('Origin',(0.,20.,0.));
#283=CARTESIAN_POINT('Origin',(0.,20.,0.));
#284=CARTESIAN_POINT('Origin',(0.,75.,0.));
#285=CARTESIAN_POINT('',(85.,75.,-1.04094977927525E-14));
#286=CARTESIAN_POINT('Origin',(0.,75.,0.));
#287=CARTESIAN_POINT('',(85.,45.,-1.04094977927525E-14));
#288=CARTESIAN_POINT('',(85.,75.,1.04094977927525E-14));
#289=CARTESIAN_POINT('Origin',(0.,45.,0.));
#290=CARTESIAN_POINT('Origin',(0.,45.,0.));
#291=CARTESIAN_POINT('',(-92.5,45.,1.1327982892113E-14));
#292=CARTESIAN_POINT('Origin',(0.,45.,0.));
#293=CARTESIAN_POINT('Origin',(0.,0.,0.));
#294=CARTESIAN_POINT('',(-92.5,0.,1.1327982892113E-14));
#295=CARTESIAN_POINT('',(-92.5,0.,1.1327982892113E-14));
#296=CARTESIAN_POINT('Origin',(0.,0.,0.));
#297=CARTESIAN_POINT('Origin',(0.,75.,0.));
#298=CARTESIAN_POINT('Origin',(0.,0.,0.));
#299=UNCERTAINTY_MEASURE_WITH_UNIT(LENGTH_MEASURE(0.01),#303,
'DISTANCE_ACCURACY_VALUE',
'Maximum model space distance between geometric entities at asserted c
onnectivities');
#300=UNCERTAINTY_MEASURE_WITH_UNIT(LENGTH_MEASURE(0.01),#303,
'DISTANCE_ACCURACY_VALUE',
'Maximum model space distance between geometric entities at asserted c
onnectivities');
#301=(
GEOMETRIC_REPRESENTATION_CONTEXT(3)
GLOBAL_UNCERTAINTY_ASSIGNED_CONTEXT((#299))
GLOBAL_UNIT_ASSIGNED_CONTEXT((#303,#305,#306))
REPRESENTATION_CONTEXT('','3D')
);
#302=(
GEOMETRIC_REPRESENTATION_CONTEXT(3)
GLOBAL_UNCERTAINTY_ASSIGNED_CONTEXT((#300))
GLOBAL_UNIT_ASSIGNED_CONTEXT((#303,#305,#306))
REPRESENTATION_CONTEXT('','3D')
);
#303=(
LENGTH_UNIT()
NAMED_UNIT(*)
SI_UNIT(.MILLI.,.METRE.)
);
#304=(
LENGTH_UNIT()
NAMED_UNIT(*)
SI_UNIT($,.METRE.)
);
#305=(
NAMED_UNIT(*)
PLANE_ANGLE_UNIT()
SI_UNIT($,.RADIAN.)
);
#306=(
NAMED_UNIT(*)
SI_UNIT($,.STERADIAN.)
SOLID_ANGLE_UNIT()
);
#307=SHAPE_DEFINITION_REPRESENTATION(#308,#309);
#308=PRODUCT_DEFINITION_SHAPE('',$,#311);
#309=SHAPE_REPRESENTATION('',(#173),#301);
#310=PRODUCT_DEFINITION_CONTEXT('part definition',#315,'design');
#311=PRODUCT_DEFINITION('cale kia','cale kia v3',#312,#310);
#312=PRODUCT_DEFINITION_FORMATION('',$,#317);
#313=PRODUCT_RELATED_PRODUCT_CATEGORY('cale kia v3','cale kia v3',(#317));
#314=APPLICATION_PROTOCOL_DEFINITION('international standard',
'automotive_design',2009,#315);
#315=APPLICATION_CONTEXT(
'Core Data for Automotive Mechanical Design Process');
#316=PRODUCT_CONTEXT('part definition',#315,'mechanical');
#317=PRODUCT('cale kia','cale kia v3',$,(#316));
#318=PRESENTATION_STYLE_ASSIGNMENT((#319));
#319=SURFACE_STYLE_USAGE(.BOTH.,#320);
#320=SURFACE_SIDE_STYLE('',(#321));
#321=SURFACE_STYLE_FILL_AREA(#322);
#322=FILL_AREA_STYLE('Acier - Satin\X\E9',(#323));
#323=FILL_AREA_STYLE_COLOUR('Acier - Satin\X\E9',#324);
#324=COLOUR_RGB('Acier - Satin\X\E9',0.627450980392157,0.627450980392157,
0.627450980392157);
ENDSEC;
END-ISO-10303-21;
