ISO-10303-21;
HEADER;
FILE_DESCRIPTION(('CATIA V5 STEP Exchange','CAx-IF Rec.Pracs.--- Model Styling and Organization---1.4--- 2014-01-23','CAx-IF Rec.Pracs.---3D Tessellated Data Validation Properties---0.5---2014-09-14'),'2;1');

FILE_NAME('C:\\Users\\chant_te\\Desktop\\laser\\bride.stp','2023-02-22T07:56:35+00:00',('none'),('none'),'CATIA Version 5-6 Release 2018','CATIA V5 STEP AP242','none');

FILE_SCHEMA(('AP242_MANAGED_MODEL_BASED_3D_ENGINEERING_MIM_LF  {1 0 10303 442 1 1 4}'));

ENDSEC;
DATA;
#5=PRODUCT('Part1','','',(#2)) ;
#2=PRODUCT_CONTEXT(' ',#1,'mechanical') ;
#1=APPLICATION_CONTEXT('managed model based 3d engineering') ;
#10=PRODUCT_DEFINITION('',' ',#6,#3) ;
#3=PRODUCT_DEFINITION_CONTEXT('part definition',#1,' ') ;
#11=PRODUCT_DEFINITION_SHAPE(' ',' ',#10) ;
#573=MECHANICAL_DESIGN_GEOMETRIC_PRESENTATION_REPRESENTATION(' ',(#29),#16) ;
#19=SHAPE_REPRESENTATION(' ',(#18),#16) ;
#7=PRODUCT_CATEGORY('part','specification') ;
#17=CARTESIAN_POINT(' ',(0.,0.,0.)) ;
#31=CARTESIAN_POINT('Axis2P3D Location',(7.5,6.5,3.)) ;
#36=CARTESIAN_POINT('Line Origine',(4.5,6.5,-1.84499999998)) ;
#40=CARTESIAN_POINT('Vertex',(4.5,6.5,0.)) ;
#42=CARTESIAN_POINT('Vertex',(4.5,6.5,3.)) ;
#45=CARTESIAN_POINT('Axis2P3D Location',(7.5,6.5,0.)) ;
#49=CARTESIAN_POINT('Vertex',(10.5,6.5,0.)) ;
#52=CARTESIAN_POINT('Line Origine',(10.5,6.5,-1.84499999998)) ;
#56=CARTESIAN_POINT('Vertex',(10.5,6.5,3.)) ;
#59=CARTESIAN_POINT('Axis2P3D Location',(7.5,6.5,3.)) ;
#71=CARTESIAN_POINT('Axis2P3D Location',(0.,0.,3.)) ;
#76=CARTESIAN_POINT('Line Origine',(22.5,0.,3.)) ;
#80=CARTESIAN_POINT('Vertex',(3.,0.,3.)) ;
#82=CARTESIAN_POINT('Vertex',(42.,0.,3.)) ;
#85=CARTESIAN_POINT('Axis2P3D Location',(42.,3.,3.)) ;
#89=CARTESIAN_POINT('Vertex',(45.,3.,3.)) ;
#92=CARTESIAN_POINT('Line Origine',(45.,22.5,3.)) ;
#96=CARTESIAN_POINT('Vertex',(45.,42.,3.)) ;
#99=CARTESIAN_POINT('Axis2P3D Location',(42.,42.,3.)) ;
#103=CARTESIAN_POINT('Vertex',(42.,45.,3.)) ;
#106=CARTESIAN_POINT('Line Origine',(22.5,45.,3.)) ;
#110=CARTESIAN_POINT('Vertex',(3.,45.,3.)) ;
#113=CARTESIAN_POINT('Axis2P3D Location',(3.,42.,3.)) ;
#117=CARTESIAN_POINT('Vertex',(0.,42.,3.)) ;
#120=CARTESIAN_POINT('Line Origine',(0.,22.5,3.)) ;
#124=CARTESIAN_POINT('Vertex',(0.,3.,3.)) ;
#127=CARTESIAN_POINT('Axis2P3D Location',(3.,3.,3.)) ;
#142=CARTESIAN_POINT('Axis2P3D Location',(7.5,6.5,3.)) ;
#151=CARTESIAN_POINT('Axis2P3D Location',(37.5,38.5,3.)) ;
#155=CARTESIAN_POINT('Vertex',(40.5,38.5,3.)) ;
#157=CARTESIAN_POINT('Vertex',(34.5,38.5,3.)) ;
#160=CARTESIAN_POINT('Axis2P3D Location',(37.5,38.5,3.)) ;
#169=CARTESIAN_POINT('Axis2P3D Location',(7.5,38.5,3.)) ;
#173=CARTESIAN_POINT('Vertex',(10.5,38.5,3.)) ;
#175=CARTESIAN_POINT('Vertex',(4.5,38.5,3.)) ;
#178=CARTESIAN_POINT('Axis2P3D Location',(7.5,38.5,3.)) ;
#187=CARTESIAN_POINT('Axis2P3D Location',(37.5,6.5,3.)) ;
#191=CARTESIAN_POINT('Vertex',(40.5,6.5,3.)) ;
#193=CARTESIAN_POINT('Vertex',(34.5,6.5,3.)) ;
#196=CARTESIAN_POINT('Axis2P3D Location',(37.5,6.5,3.)) ;
#206=CARTESIAN_POINT('Axis2P3D Location',(7.5,6.5,0.)) ;
#218=CARTESIAN_POINT('Axis2P3D Location',(0.,0.,0.)) ;
#223=CARTESIAN_POINT('Line Origine',(22.5,0.,0.)) ;
#227=CARTESIAN_POINT('Vertex',(3.,0.,0.)) ;
#229=CARTESIAN_POINT('Vertex',(42.,0.,0.)) ;
#232=CARTESIAN_POINT('Line Origine',(42.,0.,1.5)) ;
#237=CARTESIAN_POINT('Line Origine',(3.,0.,1.5)) ;
#249=CARTESIAN_POINT('Axis2P3D Location',(42.,3.,1.5)) ;
#254=CARTESIAN_POINT('Axis2P3D Location',(42.,3.,0.)) ;
#258=CARTESIAN_POINT('Vertex',(45.,3.,0.)) ;
#261=CARTESIAN_POINT('Line Origine',(45.,3.,1.5)) ;
#273=CARTESIAN_POINT('Axis2P3D Location',(3.,3.,1.5)) ;
#278=CARTESIAN_POINT('Line Origine',(0.,3.,1.5)) ;
#282=CARTESIAN_POINT('Vertex',(0.,3.,0.)) ;
#285=CARTESIAN_POINT('Axis2P3D Location',(3.,3.,0.)) ;
#297=CARTESIAN_POINT('Axis2P3D Location',(45.,0.,0.)) ;
#302=CARTESIAN_POINT('Line Origine',(45.,22.5,0.)) ;
#306=CARTESIAN_POINT('Vertex',(45.,42.,0.)) ;
#309=CARTESIAN_POINT('Line Origine',(45.,42.,1.5)) ;
#321=CARTESIAN_POINT('Axis2P3D Location',(42.,42.,1.5)) ;
#326=CARTESIAN_POINT('Axis2P3D Location',(42.,42.,0.)) ;
#330=CARTESIAN_POINT('Vertex',(42.,45.,0.)) ;
#333=CARTESIAN_POINT('Line Origine',(42.,45.,1.5)) ;
#345=CARTESIAN_POINT('Axis2P3D Location',(45.,45.,0.)) ;
#350=CARTESIAN_POINT('Line Origine',(22.5,45.,0.)) ;
#354=CARTESIAN_POINT('Vertex',(3.,45.,0.)) ;
#357=CARTESIAN_POINT('Line Origine',(3.,45.,1.5)) ;
#369=CARTESIAN_POINT('Axis2P3D Location',(3.,42.,1.5)) ;
#374=CARTESIAN_POINT('Axis2P3D Location',(3.,42.,0.)) ;
#378=CARTESIAN_POINT('Vertex',(0.,42.,0.)) ;
#381=CARTESIAN_POINT('Line Origine',(0.,42.,1.5)) ;
#393=CARTESIAN_POINT('Axis2P3D Location',(0.,45.,0.)) ;
#398=CARTESIAN_POINT('Line Origine',(0.,22.5,0.)) ;
#410=CARTESIAN_POINT('Axis2P3D Location',(0.,0.,0.)) ;
#429=CARTESIAN_POINT('Axis2P3D Location',(37.5,38.5,0.)) ;
#433=CARTESIAN_POINT('Vertex',(34.5,38.5,0.)) ;
#435=CARTESIAN_POINT('Vertex',(40.5,38.5,0.)) ;
#438=CARTESIAN_POINT('Axis2P3D Location',(37.5,38.5,0.)) ;
#447=CARTESIAN_POINT('Axis2P3D Location',(7.5,38.5,0.)) ;
#451=CARTESIAN_POINT('Vertex',(4.5,38.5,0.)) ;
#453=CARTESIAN_POINT('Vertex',(10.5,38.5,0.)) ;
#456=CARTESIAN_POINT('Axis2P3D Location',(7.5,38.5,0.)) ;
#465=CARTESIAN_POINT('Axis2P3D Location',(37.5,6.5,0.)) ;
#469=CARTESIAN_POINT('Vertex',(34.5,6.5,0.)) ;
#471=CARTESIAN_POINT('Vertex',(40.5,6.5,0.)) ;
#474=CARTESIAN_POINT('Axis2P3D Location',(37.5,6.5,0.)) ;
#484=CARTESIAN_POINT('Axis2P3D Location',(37.5,38.5,3.)) ;
#489=CARTESIAN_POINT('Line Origine',(34.5,38.5,-1.84499999998)) ;
#494=CARTESIAN_POINT('Line Origine',(40.5,38.5,-1.84499999998)) ;
#513=CARTESIAN_POINT('Axis2P3D Location',(7.5,38.5,3.)) ;
#518=CARTESIAN_POINT('Line Origine',(4.5,38.5,-1.84499999998)) ;
#523=CARTESIAN_POINT('Line Origine',(10.5,38.5,-1.84499999998)) ;
#542=CARTESIAN_POINT('Axis2P3D Location',(37.5,6.5,3.)) ;
#547=CARTESIAN_POINT('Line Origine',(34.5,6.5,-1.84499999998)) ;
#552=CARTESIAN_POINT('Line Origine',(40.5,6.5,-1.84499999998)) ;
#8=PRODUCT_RELATED_PRODUCT_CATEGORY('part',$,(#5)) ;
#29=STYLED_ITEM(' ',(#28),#21) ;
#28=PRESENTATION_STYLE_ASSIGNMENT((#27)) ;
#27=SURFACE_STYLE_USAGE(.BOTH.,#26) ;
#26=SURFACE_SIDE_STYLE(' ',(#25)) ;
#25=SURFACE_STYLE_FILL_AREA(#24) ;
#24=FILL_AREA_STYLE(' ',(#23)) ;
#23=FILL_AREA_STYLE_COLOUR(' ',#22) ;
#38=VECTOR('Line Direction',#37,1.) ;
#54=VECTOR('Line Direction',#53,1.) ;
#78=VECTOR('Line Direction',#77,1.) ;
#94=VECTOR('Line Direction',#93,1.) ;
#108=VECTOR('Line Direction',#107,1.) ;
#122=VECTOR('Line Direction',#121,1.) ;
#225=VECTOR('Line Direction',#224,1.) ;
#234=VECTOR('Line Direction',#233,1.) ;
#239=VECTOR('Line Direction',#238,1.) ;
#263=VECTOR('Line Direction',#262,1.) ;
#280=VECTOR('Line Direction',#279,1.) ;
#304=VECTOR('Line Direction',#303,1.) ;
#311=VECTOR('Line Direction',#310,1.) ;
#335=VECTOR('Line Direction',#334,1.) ;
#352=VECTOR('Line Direction',#351,1.) ;
#359=VECTOR('Line Direction',#358,1.) ;
#383=VECTOR('Line Direction',#382,1.) ;
#400=VECTOR('Line Direction',#399,1.) ;
#491=VECTOR('Line Direction',#490,1.) ;
#496=VECTOR('Line Direction',#495,1.) ;
#520=VECTOR('Line Direction',#519,1.) ;
#525=VECTOR('Line Direction',#524,1.) ;
#549=VECTOR('Line Direction',#548,1.) ;
#554=VECTOR('Line Direction',#553,1.) ;
#32=DIRECTION('Axis2P3D Direction',(0.,-0.,-1.)) ;
#33=DIRECTION('Axis2P3D XDirection',(1.,0.,0.)) ;
#37=DIRECTION('Vector Direction',(0.,0.,-1.)) ;
#46=DIRECTION('Axis2P3D Direction',(0.,-0.,-1.)) ;
#53=DIRECTION('Vector Direction',(0.,0.,-1.)) ;
#60=DIRECTION('Axis2P3D Direction',(0.,-0.,-1.)) ;
#72=DIRECTION('Axis2P3D Direction',(0.,0.,1.)) ;
#73=DIRECTION('Axis2P3D XDirection',(1.,0.,0.)) ;
#77=DIRECTION('Vector Direction',(1.,0.,0.)) ;
#86=DIRECTION('Axis2P3D Direction',(0.,0.,1.)) ;
#93=DIRECTION('Vector Direction',(0.,1.,0.)) ;
#100=DIRECTION('Axis2P3D Direction',(0.,0.,1.)) ;
#107=DIRECTION('Vector Direction',(-1.,0.,0.)) ;
#114=DIRECTION('Axis2P3D Direction',(0.,0.,1.)) ;
#121=DIRECTION('Vector Direction',(0.,-1.,0.)) ;
#128=DIRECTION('Axis2P3D Direction',(0.,0.,1.)) ;
#143=DIRECTION('Axis2P3D Direction',(0.,0.,1.)) ;
#152=DIRECTION('Axis2P3D Direction',(0.,0.,1.)) ;
#161=DIRECTION('Axis2P3D Direction',(0.,0.,1.)) ;
#170=DIRECTION('Axis2P3D Direction',(0.,0.,1.)) ;
#179=DIRECTION('Axis2P3D Direction',(0.,0.,1.)) ;
#188=DIRECTION('Axis2P3D Direction',(0.,0.,1.)) ;
#197=DIRECTION('Axis2P3D Direction',(0.,0.,1.)) ;
#207=DIRECTION('Axis2P3D Direction',(0.,-0.,-1.)) ;
#219=DIRECTION('Axis2P3D Direction',(0.,-1.,0.)) ;
#220=DIRECTION('Axis2P3D XDirection',(1.,0.,0.)) ;
#224=DIRECTION('Vector Direction',(1.,0.,0.)) ;
#233=DIRECTION('Vector Direction',(0.,0.,1.)) ;
#238=DIRECTION('Vector Direction',(0.,0.,1.)) ;
#250=DIRECTION('Axis2P3D Direction',(0.,0.,1.)) ;
#251=DIRECTION('Axis2P3D XDirection',(-1.83697019872E-016,-1.,-0.)) ;
#255=DIRECTION('Axis2P3D Direction',(0.,0.,1.)) ;
#262=DIRECTION('Vector Direction',(0.,0.,1.)) ;
#274=DIRECTION('Axis2P3D Direction',(0.,0.,1.)) ;
#275=DIRECTION('Axis2P3D XDirection',(-1.,1.83697019872E-016,0.)) ;
#279=DIRECTION('Vector Direction',(0.,0.,1.)) ;
#286=DIRECTION('Axis2P3D Direction',(0.,0.,1.)) ;
#298=DIRECTION('Axis2P3D Direction',(1.,0.,0.)) ;
#299=DIRECTION('Axis2P3D XDirection',(0.,1.,0.)) ;
#303=DIRECTION('Vector Direction',(0.,1.,0.)) ;
#310=DIRECTION('Vector Direction',(0.,0.,1.)) ;
#322=DIRECTION('Axis2P3D Direction',(0.,-0.,1.)) ;
#323=DIRECTION('Axis2P3D XDirection',(1.,-1.83697019872E-016,-0.)) ;
#327=DIRECTION('Axis2P3D Direction',(0.,-0.,1.)) ;
#334=DIRECTION('Vector Direction',(0.,0.,1.)) ;
#346=DIRECTION('Axis2P3D Direction',(0.,1.,-0.)) ;
#347=DIRECTION('Axis2P3D XDirection',(-1.,0.,0.)) ;
#351=DIRECTION('Vector Direction',(-1.,0.,0.)) ;
#358=DIRECTION('Vector Direction',(0.,0.,1.)) ;
#370=DIRECTION('Axis2P3D Direction',(0.,0.,1.)) ;
#371=DIRECTION('Axis2P3D XDirection',(1.83697019872E-016,1.,-0.)) ;
#375=DIRECTION('Axis2P3D Direction',(0.,0.,1.)) ;
#382=DIRECTION('Vector Direction',(0.,0.,1.)) ;
#394=DIRECTION('Axis2P3D Direction',(-1.,0.,0.)) ;
#395=DIRECTION('Axis2P3D XDirection',(0.,-1.,0.)) ;
#399=DIRECTION('Vector Direction',(0.,-1.,0.)) ;
#411=DIRECTION('Axis2P3D Direction',(0.,0.,1.)) ;
#412=DIRECTION('Axis2P3D XDirection',(1.,0.,0.)) ;
#430=DIRECTION('Axis2P3D Direction',(0.,0.,1.)) ;
#439=DIRECTION('Axis2P3D Direction',(0.,0.,1.)) ;
#448=DIRECTION('Axis2P3D Direction',(0.,0.,1.)) ;
#457=DIRECTION('Axis2P3D Direction',(0.,0.,1.)) ;
#466=DIRECTION('Axis2P3D Direction',(0.,0.,1.)) ;
#475=DIRECTION('Axis2P3D Direction',(0.,0.,1.)) ;
#485=DIRECTION('Axis2P3D Direction',(0.,-0.,-1.)) ;
#486=DIRECTION('Axis2P3D XDirection',(1.,0.,0.)) ;
#490=DIRECTION('Vector Direction',(0.,0.,-1.)) ;
#495=DIRECTION('Vector Direction',(0.,0.,-1.)) ;
#514=DIRECTION('Axis2P3D Direction',(0.,-0.,-1.)) ;
#515=DIRECTION('Axis2P3D XDirection',(1.,0.,0.)) ;
#519=DIRECTION('Vector Direction',(0.,0.,-1.)) ;
#524=DIRECTION('Vector Direction',(0.,0.,-1.)) ;
#543=DIRECTION('Axis2P3D Direction',(0.,-0.,-1.)) ;
#544=DIRECTION('Axis2P3D XDirection',(1.,0.,0.)) ;
#548=DIRECTION('Vector Direction',(0.,0.,-1.)) ;
#553=DIRECTION('Vector Direction',(0.,0.,-1.)) ;
#15=UNCERTAINTY_MEASURE_WITH_UNIT(LENGTH_MEASURE(0.005),#12,'distance_accuracy_value','CONFUSED CURVE UNCERTAINTY') ;
#18=AXIS2_PLACEMENT_3D(' ',#17,$,$) ;
#34=AXIS2_PLACEMENT_3D('Cylinder Axis2P3D',#31,#32,#33) ;
#47=AXIS2_PLACEMENT_3D('Circle Axis2P3D',#45,#46,$) ;
#61=AXIS2_PLACEMENT_3D('Circle Axis2P3D',#59,#60,$) ;
#74=AXIS2_PLACEMENT_3D('Plane Axis2P3D',#71,#72,#73) ;
#87=AXIS2_PLACEMENT_3D('Circle Axis2P3D',#85,#86,$) ;
#101=AXIS2_PLACEMENT_3D('Circle Axis2P3D',#99,#100,$) ;
#115=AXIS2_PLACEMENT_3D('Circle Axis2P3D',#113,#114,$) ;
#129=AXIS2_PLACEMENT_3D('Circle Axis2P3D',#127,#128,$) ;
#144=AXIS2_PLACEMENT_3D('Circle Axis2P3D',#142,#143,$) ;
#153=AXIS2_PLACEMENT_3D('Circle Axis2P3D',#151,#152,$) ;
#162=AXIS2_PLACEMENT_3D('Circle Axis2P3D',#160,#161,$) ;
#171=AXIS2_PLACEMENT_3D('Circle Axis2P3D',#169,#170,$) ;
#180=AXIS2_PLACEMENT_3D('Circle Axis2P3D',#178,#179,$) ;
#189=AXIS2_PLACEMENT_3D('Circle Axis2P3D',#187,#188,$) ;
#198=AXIS2_PLACEMENT_3D('Circle Axis2P3D',#196,#197,$) ;
#208=AXIS2_PLACEMENT_3D('Circle Axis2P3D',#206,#207,$) ;
#221=AXIS2_PLACEMENT_3D('Plane Axis2P3D',#218,#219,#220) ;
#252=AXIS2_PLACEMENT_3D('Cylinder Axis2P3D',#249,#250,#251) ;
#256=AXIS2_PLACEMENT_3D('Circle Axis2P3D',#254,#255,$) ;
#276=AXIS2_PLACEMENT_3D('Cylinder Axis2P3D',#273,#274,#275) ;
#287=AXIS2_PLACEMENT_3D('Circle Axis2P3D',#285,#286,$) ;
#300=AXIS2_PLACEMENT_3D('Plane Axis2P3D',#297,#298,#299) ;
#324=AXIS2_PLACEMENT_3D('Cylinder Axis2P3D',#321,#322,#323) ;
#328=AXIS2_PLACEMENT_3D('Circle Axis2P3D',#326,#327,$) ;
#348=AXIS2_PLACEMENT_3D('Plane Axis2P3D',#345,#346,#347) ;
#372=AXIS2_PLACEMENT_3D('Cylinder Axis2P3D',#369,#370,#371) ;
#376=AXIS2_PLACEMENT_3D('Circle Axis2P3D',#374,#375,$) ;
#396=AXIS2_PLACEMENT_3D('Plane Axis2P3D',#393,#394,#395) ;
#413=AXIS2_PLACEMENT_3D('Plane Axis2P3D',#410,#411,#412) ;
#431=AXIS2_PLACEMENT_3D('Circle Axis2P3D',#429,#430,$) ;
#440=AXIS2_PLACEMENT_3D('Circle Axis2P3D',#438,#439,$) ;
#449=AXIS2_PLACEMENT_3D('Circle Axis2P3D',#447,#448,$) ;
#458=AXIS2_PLACEMENT_3D('Circle Axis2P3D',#456,#457,$) ;
#467=AXIS2_PLACEMENT_3D('Circle Axis2P3D',#465,#466,$) ;
#476=AXIS2_PLACEMENT_3D('Circle Axis2P3D',#474,#475,$) ;
#487=AXIS2_PLACEMENT_3D('Cylinder Axis2P3D',#484,#485,#486) ;
#516=AXIS2_PLACEMENT_3D('Cylinder Axis2P3D',#513,#514,#515) ;
#545=AXIS2_PLACEMENT_3D('Cylinder Axis2P3D',#542,#543,#544) ;
#39=LINE('Line',#36,#38) ;
#55=LINE('Line',#52,#54) ;
#79=LINE('Line',#76,#78) ;
#95=LINE('Line',#92,#94) ;
#109=LINE('Line',#106,#108) ;
#123=LINE('Line',#120,#122) ;
#226=LINE('Line',#223,#225) ;
#235=LINE('Line',#232,#234) ;
#240=LINE('Line',#237,#239) ;
#264=LINE('Line',#261,#263) ;
#281=LINE('Line',#278,#280) ;
#305=LINE('Line',#302,#304) ;
#312=LINE('Line',#309,#311) ;
#336=LINE('Line',#333,#335) ;
#353=LINE('Line',#350,#352) ;
#360=LINE('Line',#357,#359) ;
#384=LINE('Line',#381,#383) ;
#401=LINE('Line',#398,#400) ;
#492=LINE('Line',#489,#491) ;
#497=LINE('Line',#494,#496) ;
#521=LINE('Line',#518,#520) ;
#526=LINE('Line',#523,#525) ;
#550=LINE('Line',#547,#549) ;
#555=LINE('Line',#552,#554) ;
#48=CIRCLE('generated circle',#47,3.) ;
#62=CIRCLE('generated circle',#61,3.) ;
#88=CIRCLE('generated circle',#87,3.) ;
#102=CIRCLE('generated circle',#101,3.) ;
#116=CIRCLE('generated circle',#115,3.) ;
#130=CIRCLE('generated circle',#129,3.) ;
#145=CIRCLE('generated circle',#144,3.) ;
#154=CIRCLE('generated circle',#153,3.) ;
#163=CIRCLE('generated circle',#162,3.) ;
#172=CIRCLE('generated circle',#171,3.) ;
#181=CIRCLE('generated circle',#180,3.) ;
#190=CIRCLE('generated circle',#189,3.) ;
#199=CIRCLE('generated circle',#198,3.) ;
#209=CIRCLE('generated circle',#208,3.) ;
#257=CIRCLE('generated circle',#256,3.) ;
#288=CIRCLE('generated circle',#287,3.) ;
#329=CIRCLE('generated circle',#328,3.) ;
#377=CIRCLE('generated circle',#376,3.) ;
#432=CIRCLE('generated circle',#431,3.) ;
#441=CIRCLE('generated circle',#440,3.) ;
#450=CIRCLE('generated circle',#449,3.) ;
#459=CIRCLE('generated circle',#458,3.) ;
#468=CIRCLE('generated circle',#467,3.) ;
#477=CIRCLE('generated circle',#476,3.) ;
#75=PLANE('',#74) ;
#222=PLANE('',#221) ;
#301=PLANE('',#300) ;
#349=PLANE('',#348) ;
#397=PLANE('',#396) ;
#414=PLANE('',#413) ;
#35=CYLINDRICAL_SURFACE('generated cylinder',#34,3.) ;
#253=CYLINDRICAL_SURFACE('generated cylinder',#252,3.) ;
#277=CYLINDRICAL_SURFACE('generated cylinder',#276,3.) ;
#325=CYLINDRICAL_SURFACE('generated cylinder',#324,3.) ;
#373=CYLINDRICAL_SURFACE('generated cylinder',#372,3.) ;
#488=CYLINDRICAL_SURFACE('generated cylinder',#487,3.) ;
#517=CYLINDRICAL_SURFACE('generated cylinder',#516,3.) ;
#546=CYLINDRICAL_SURFACE('generated cylinder',#545,3.) ;
#150=FACE_BOUND('',#147,.T.) ;
#168=FACE_BOUND('',#165,.T.) ;
#186=FACE_BOUND('',#183,.T.) ;
#204=FACE_BOUND('',#201,.T.) ;
#428=FACE_BOUND('',#425,.T.) ;
#446=FACE_BOUND('',#443,.T.) ;
#464=FACE_BOUND('',#461,.T.) ;
#482=FACE_BOUND('',#479,.T.) ;
#44=EDGE_CURVE('',#41,#43,#39,.F.) ;
#51=EDGE_CURVE('',#50,#41,#48,.F.) ;
#58=EDGE_CURVE('',#50,#57,#55,.F.) ;
#63=EDGE_CURVE('',#57,#43,#62,.F.) ;
#84=EDGE_CURVE('',#81,#83,#79,.T.) ;
#91=EDGE_CURVE('',#90,#83,#88,.F.) ;
#98=EDGE_CURVE('',#90,#97,#95,.T.) ;
#105=EDGE_CURVE('',#104,#97,#102,.F.) ;
#112=EDGE_CURVE('',#104,#111,#109,.T.) ;
#119=EDGE_CURVE('',#118,#111,#116,.F.) ;
#126=EDGE_CURVE('',#118,#125,#123,.T.) ;
#131=EDGE_CURVE('',#81,#125,#130,.F.) ;
#146=EDGE_CURVE('',#43,#57,#145,.T.) ;
#159=EDGE_CURVE('',#156,#158,#154,.T.) ;
#164=EDGE_CURVE('',#158,#156,#163,.T.) ;
#177=EDGE_CURVE('',#174,#176,#172,.T.) ;
#182=EDGE_CURVE('',#176,#174,#181,.T.) ;
#195=EDGE_CURVE('',#192,#194,#190,.T.) ;
#200=EDGE_CURVE('',#194,#192,#199,.T.) ;
#210=EDGE_CURVE('',#41,#50,#209,.F.) ;
#231=EDGE_CURVE('',#228,#230,#226,.T.) ;
#236=EDGE_CURVE('',#230,#83,#235,.T.) ;
#241=EDGE_CURVE('',#228,#81,#240,.T.) ;
#260=EDGE_CURVE('',#230,#259,#257,.T.) ;
#265=EDGE_CURVE('',#259,#90,#264,.T.) ;
#284=EDGE_CURVE('',#283,#125,#281,.T.) ;
#289=EDGE_CURVE('',#283,#228,#288,.T.) ;
#308=EDGE_CURVE('',#259,#307,#305,.T.) ;
#313=EDGE_CURVE('',#307,#97,#312,.T.) ;
#332=EDGE_CURVE('',#307,#331,#329,.T.) ;
#337=EDGE_CURVE('',#331,#104,#336,.T.) ;
#356=EDGE_CURVE('',#331,#355,#353,.T.) ;
#361=EDGE_CURVE('',#355,#111,#360,.T.) ;
#380=EDGE_CURVE('',#355,#379,#377,.T.) ;
#385=EDGE_CURVE('',#379,#118,#384,.T.) ;
#402=EDGE_CURVE('',#379,#283,#401,.T.) ;
#437=EDGE_CURVE('',#434,#436,#432,.T.) ;
#442=EDGE_CURVE('',#436,#434,#441,.T.) ;
#455=EDGE_CURVE('',#452,#454,#450,.T.) ;
#460=EDGE_CURVE('',#454,#452,#459,.T.) ;
#473=EDGE_CURVE('',#470,#472,#468,.T.) ;
#478=EDGE_CURVE('',#472,#470,#477,.T.) ;
#493=EDGE_CURVE('',#434,#158,#492,.F.) ;
#498=EDGE_CURVE('',#436,#156,#497,.F.) ;
#522=EDGE_CURVE('',#452,#176,#521,.F.) ;
#527=EDGE_CURVE('',#454,#174,#526,.F.) ;
#551=EDGE_CURVE('',#470,#194,#550,.F.) ;
#556=EDGE_CURVE('',#472,#192,#555,.F.) ;
#30=CLOSED_SHELL('Closed Shell',(#70,#205,#217,#248,#272,#296,#320,#344,#368,#392,#409,#483,#505,#512,#534,#541,#563,#570)) ;
#572=SHAPE_REPRESENTATION_RELATIONSHIP(' ',' ',#19,#571) ;
#64=EDGE_LOOP('',(#65,#66,#67,#68)) ;
#132=EDGE_LOOP('',(#133,#134,#135,#136,#137,#138,#139,#140)) ;
#147=EDGE_LOOP('',(#148,#149)) ;
#165=EDGE_LOOP('',(#166,#167)) ;
#183=EDGE_LOOP('',(#184,#185)) ;
#201=EDGE_LOOP('',(#202,#203)) ;
#211=EDGE_LOOP('',(#212,#213,#214,#215)) ;
#242=EDGE_LOOP('',(#243,#244,#245,#246)) ;
#266=EDGE_LOOP('',(#267,#268,#269,#270)) ;
#290=EDGE_LOOP('',(#291,#292,#293,#294)) ;
#314=EDGE_LOOP('',(#315,#316,#317,#318)) ;
#338=EDGE_LOOP('',(#339,#340,#341,#342)) ;
#362=EDGE_LOOP('',(#363,#364,#365,#366)) ;
#386=EDGE_LOOP('',(#387,#388,#389,#390)) ;
#403=EDGE_LOOP('',(#404,#405,#406,#407)) ;
#415=EDGE_LOOP('',(#416,#417,#418,#419,#420,#421,#422,#423)) ;
#425=EDGE_LOOP('',(#426,#427)) ;
#443=EDGE_LOOP('',(#444,#445)) ;
#461=EDGE_LOOP('',(#462,#463)) ;
#479=EDGE_LOOP('',(#480,#481)) ;
#499=EDGE_LOOP('',(#500,#501,#502,#503)) ;
#506=EDGE_LOOP('',(#507,#508,#509,#510)) ;
#528=EDGE_LOOP('',(#529,#530,#531,#532)) ;
#535=EDGE_LOOP('',(#536,#537,#538,#539)) ;
#557=EDGE_LOOP('',(#558,#559,#560,#561)) ;
#564=EDGE_LOOP('',(#565,#566,#567,#568)) ;
#65=ORIENTED_EDGE('',*,*,#44,.F.) ;
#66=ORIENTED_EDGE('',*,*,#51,.F.) ;
#67=ORIENTED_EDGE('',*,*,#58,.T.) ;
#68=ORIENTED_EDGE('',*,*,#63,.T.) ;
#133=ORIENTED_EDGE('',*,*,#84,.T.) ;
#134=ORIENTED_EDGE('',*,*,#91,.F.) ;
#135=ORIENTED_EDGE('',*,*,#98,.T.) ;
#136=ORIENTED_EDGE('',*,*,#105,.F.) ;
#137=ORIENTED_EDGE('',*,*,#112,.T.) ;
#138=ORIENTED_EDGE('',*,*,#119,.F.) ;
#139=ORIENTED_EDGE('',*,*,#126,.T.) ;
#140=ORIENTED_EDGE('',*,*,#131,.F.) ;
#148=ORIENTED_EDGE('',*,*,#146,.F.) ;
#149=ORIENTED_EDGE('',*,*,#63,.F.) ;
#166=ORIENTED_EDGE('',*,*,#159,.F.) ;
#167=ORIENTED_EDGE('',*,*,#164,.F.) ;
#184=ORIENTED_EDGE('',*,*,#177,.F.) ;
#185=ORIENTED_EDGE('',*,*,#182,.F.) ;
#202=ORIENTED_EDGE('',*,*,#195,.F.) ;
#203=ORIENTED_EDGE('',*,*,#200,.F.) ;
#212=ORIENTED_EDGE('',*,*,#58,.F.) ;
#213=ORIENTED_EDGE('',*,*,#210,.F.) ;
#214=ORIENTED_EDGE('',*,*,#44,.T.) ;
#215=ORIENTED_EDGE('',*,*,#146,.T.) ;
#243=ORIENTED_EDGE('',*,*,#231,.T.) ;
#244=ORIENTED_EDGE('',*,*,#236,.T.) ;
#245=ORIENTED_EDGE('',*,*,#84,.F.) ;
#246=ORIENTED_EDGE('',*,*,#241,.F.) ;
#267=ORIENTED_EDGE('',*,*,#91,.T.) ;
#268=ORIENTED_EDGE('',*,*,#236,.F.) ;
#269=ORIENTED_EDGE('',*,*,#260,.T.) ;
#270=ORIENTED_EDGE('',*,*,#265,.T.) ;
#291=ORIENTED_EDGE('',*,*,#131,.T.) ;
#292=ORIENTED_EDGE('',*,*,#284,.F.) ;
#293=ORIENTED_EDGE('',*,*,#289,.T.) ;
#294=ORIENTED_EDGE('',*,*,#241,.T.) ;
#315=ORIENTED_EDGE('',*,*,#98,.F.) ;
#316=ORIENTED_EDGE('',*,*,#265,.F.) ;
#317=ORIENTED_EDGE('',*,*,#308,.T.) ;
#318=ORIENTED_EDGE('',*,*,#313,.T.) ;
#339=ORIENTED_EDGE('',*,*,#105,.T.) ;
#340=ORIENTED_EDGE('',*,*,#313,.F.) ;
#341=ORIENTED_EDGE('',*,*,#332,.T.) ;
#342=ORIENTED_EDGE('',*,*,#337,.T.) ;
#363=ORIENTED_EDGE('',*,*,#112,.F.) ;
#364=ORIENTED_EDGE('',*,*,#337,.F.) ;
#365=ORIENTED_EDGE('',*,*,#356,.T.) ;
#366=ORIENTED_EDGE('',*,*,#361,.T.) ;
#387=ORIENTED_EDGE('',*,*,#119,.T.) ;
#388=ORIENTED_EDGE('',*,*,#361,.F.) ;
#389=ORIENTED_EDGE('',*,*,#380,.T.) ;
#390=ORIENTED_EDGE('',*,*,#385,.T.) ;
#404=ORIENTED_EDGE('',*,*,#126,.F.) ;
#405=ORIENTED_EDGE('',*,*,#385,.F.) ;
#406=ORIENTED_EDGE('',*,*,#402,.T.) ;
#407=ORIENTED_EDGE('',*,*,#284,.T.) ;
#416=ORIENTED_EDGE('',*,*,#289,.F.) ;
#417=ORIENTED_EDGE('',*,*,#402,.F.) ;
#418=ORIENTED_EDGE('',*,*,#380,.F.) ;
#419=ORIENTED_EDGE('',*,*,#356,.F.) ;
#420=ORIENTED_EDGE('',*,*,#332,.F.) ;
#421=ORIENTED_EDGE('',*,*,#308,.F.) ;
#422=ORIENTED_EDGE('',*,*,#260,.F.) ;
#423=ORIENTED_EDGE('',*,*,#231,.F.) ;
#426=ORIENTED_EDGE('',*,*,#51,.T.) ;
#427=ORIENTED_EDGE('',*,*,#210,.T.) ;
#444=ORIENTED_EDGE('',*,*,#437,.T.) ;
#445=ORIENTED_EDGE('',*,*,#442,.T.) ;
#462=ORIENTED_EDGE('',*,*,#455,.T.) ;
#463=ORIENTED_EDGE('',*,*,#460,.T.) ;
#480=ORIENTED_EDGE('',*,*,#473,.T.) ;
#481=ORIENTED_EDGE('',*,*,#478,.T.) ;
#500=ORIENTED_EDGE('',*,*,#493,.F.) ;
#501=ORIENTED_EDGE('',*,*,#442,.F.) ;
#502=ORIENTED_EDGE('',*,*,#498,.T.) ;
#503=ORIENTED_EDGE('',*,*,#159,.T.) ;
#507=ORIENTED_EDGE('',*,*,#498,.F.) ;
#508=ORIENTED_EDGE('',*,*,#437,.F.) ;
#509=ORIENTED_EDGE('',*,*,#493,.T.) ;
#510=ORIENTED_EDGE('',*,*,#164,.T.) ;
#529=ORIENTED_EDGE('',*,*,#522,.F.) ;
#530=ORIENTED_EDGE('',*,*,#460,.F.) ;
#531=ORIENTED_EDGE('',*,*,#527,.T.) ;
#532=ORIENTED_EDGE('',*,*,#177,.T.) ;
#536=ORIENTED_EDGE('',*,*,#527,.F.) ;
#537=ORIENTED_EDGE('',*,*,#455,.F.) ;
#538=ORIENTED_EDGE('',*,*,#522,.T.) ;
#539=ORIENTED_EDGE('',*,*,#182,.T.) ;
#558=ORIENTED_EDGE('',*,*,#551,.F.) ;
#559=ORIENTED_EDGE('',*,*,#478,.F.) ;
#560=ORIENTED_EDGE('',*,*,#556,.T.) ;
#561=ORIENTED_EDGE('',*,*,#195,.T.) ;
#565=ORIENTED_EDGE('',*,*,#556,.F.) ;
#566=ORIENTED_EDGE('',*,*,#473,.F.) ;
#567=ORIENTED_EDGE('',*,*,#551,.T.) ;
#568=ORIENTED_EDGE('',*,*,#200,.T.) ;
#21=MANIFOLD_SOLID_BREP('Corps principal',#30) ;
#41=VERTEX_POINT('',#40) ;
#43=VERTEX_POINT('',#42) ;
#50=VERTEX_POINT('',#49) ;
#57=VERTEX_POINT('',#56) ;
#81=VERTEX_POINT('',#80) ;
#83=VERTEX_POINT('',#82) ;
#90=VERTEX_POINT('',#89) ;
#97=VERTEX_POINT('',#96) ;
#104=VERTEX_POINT('',#103) ;
#111=VERTEX_POINT('',#110) ;
#118=VERTEX_POINT('',#117) ;
#125=VERTEX_POINT('',#124) ;
#156=VERTEX_POINT('',#155) ;
#158=VERTEX_POINT('',#157) ;
#174=VERTEX_POINT('',#173) ;
#176=VERTEX_POINT('',#175) ;
#192=VERTEX_POINT('',#191) ;
#194=VERTEX_POINT('',#193) ;
#228=VERTEX_POINT('',#227) ;
#230=VERTEX_POINT('',#229) ;
#259=VERTEX_POINT('',#258) ;
#283=VERTEX_POINT('',#282) ;
#307=VERTEX_POINT('',#306) ;
#331=VERTEX_POINT('',#330) ;
#355=VERTEX_POINT('',#354) ;
#379=VERTEX_POINT('',#378) ;
#434=VERTEX_POINT('',#433) ;
#436=VERTEX_POINT('',#435) ;
#452=VERTEX_POINT('',#451) ;
#454=VERTEX_POINT('',#453) ;
#470=VERTEX_POINT('',#469) ;
#472=VERTEX_POINT('',#471) ;
#571=ADVANCED_BREP_SHAPE_REPRESENTATION('NONE',(#21),#16) ;
#70=ADVANCED_FACE('Corps principal',(#69),#35,.F.) ;
#205=ADVANCED_FACE('Corps principal',(#141,#150,#168,#186,#204),#75,.T.) ;
#217=ADVANCED_FACE('Corps principal',(#216),#35,.F.) ;
#248=ADVANCED_FACE('Corps principal',(#247),#222,.T.) ;
#272=ADVANCED_FACE('Corps principal',(#271),#253,.T.) ;
#296=ADVANCED_FACE('Corps principal',(#295),#277,.T.) ;
#320=ADVANCED_FACE('Corps principal',(#319),#301,.T.) ;
#344=ADVANCED_FACE('Corps principal',(#343),#325,.T.) ;
#368=ADVANCED_FACE('Corps principal',(#367),#349,.T.) ;
#392=ADVANCED_FACE('Corps principal',(#391),#373,.T.) ;
#409=ADVANCED_FACE('Corps principal',(#408),#397,.T.) ;
#483=ADVANCED_FACE('Corps principal',(#424,#428,#446,#464,#482),#414,.F.) ;
#505=ADVANCED_FACE('Corps principal',(#504),#488,.F.) ;
#512=ADVANCED_FACE('Corps principal',(#511),#488,.F.) ;
#534=ADVANCED_FACE('Corps principal',(#533),#517,.F.) ;
#541=ADVANCED_FACE('Corps principal',(#540),#517,.F.) ;
#563=ADVANCED_FACE('Corps principal',(#562),#546,.F.) ;
#570=ADVANCED_FACE('Corps principal',(#569),#546,.F.) ;
#4=APPLICATION_PROTOCOL_DEFINITION('international standard','ap242_managed_model_based_3d_engineering',2014,#1) ;
#22=COLOUR_RGB('Colour',0.823529411765,0.823529411765,1.) ;
#69=FACE_OUTER_BOUND('',#64,.T.) ;
#141=FACE_OUTER_BOUND('',#132,.T.) ;
#216=FACE_OUTER_BOUND('',#211,.T.) ;
#247=FACE_OUTER_BOUND('',#242,.T.) ;
#271=FACE_OUTER_BOUND('',#266,.T.) ;
#295=FACE_OUTER_BOUND('',#290,.T.) ;
#319=FACE_OUTER_BOUND('',#314,.T.) ;
#343=FACE_OUTER_BOUND('',#338,.T.) ;
#367=FACE_OUTER_BOUND('',#362,.T.) ;
#391=FACE_OUTER_BOUND('',#386,.T.) ;
#408=FACE_OUTER_BOUND('',#403,.T.) ;
#424=FACE_OUTER_BOUND('',#415,.T.) ;
#504=FACE_OUTER_BOUND('',#499,.T.) ;
#511=FACE_OUTER_BOUND('',#506,.T.) ;
#533=FACE_OUTER_BOUND('',#528,.T.) ;
#540=FACE_OUTER_BOUND('',#535,.T.) ;
#562=FACE_OUTER_BOUND('',#557,.T.) ;
#569=FACE_OUTER_BOUND('',#564,.T.) ;
#9=PRODUCT_CATEGORY_RELATIONSHIP(' ',' ',#7,#8) ;
#6=PRODUCT_DEFINITION_FORMATION_WITH_SPECIFIED_SOURCE('',' ',#5,.NOT_KNOWN.) ;
#20=SHAPE_DEFINITION_REPRESENTATION(#11,#19) ;
#12=(LENGTH_UNIT()NAMED_UNIT(*)SI_UNIT(.MILLI.,.METRE.)) ;
#13=(NAMED_UNIT(*)PLANE_ANGLE_UNIT()SI_UNIT($,.RADIAN.)) ;
#14=(NAMED_UNIT(*)SI_UNIT($,.STERADIAN.)SOLID_ANGLE_UNIT()) ;
#16=(GEOMETRIC_REPRESENTATION_CONTEXT(3)GLOBAL_UNCERTAINTY_ASSIGNED_CONTEXT((#15))GLOBAL_UNIT_ASSIGNED_CONTEXT((#12,#13,#14))REPRESENTATION_CONTEXT(' ',' ')) ;
ENDSEC;
END-ISO-10303-21;
