ISO-10303-21;
HEADER;
FILE_DESCRIPTION(('CATIA V5 STEP Exchange'),'2;1');

FILE_NAME('C:\\Documents and Settings\\MOI\\Bureau\\pieces divers\\frein a main clio\\levier rs grN.stp','2023-11-26T16:17:59+00:00',('none'),('none'),'CATIA Version 5 Release 19 SP 2 (IN-10)','CATIA V5 STEP AP203','none');

FILE_SCHEMA(('CONFIG_CONTROL_DESIGN'));

ENDSEC;
/* file written by CATIA V5R19 */
DATA;
#5=PRODUCT('Part1','','',(#2)) ;
#1=APPLICATION_CONTEXT('configuration controlled 3D design of mechanical parts and assemblies') ;
#14=PRODUCT_DEFINITION('',' ',#6,#3) ;
#16=SECURITY_CLASSIFICATION(' ',' ',#15) ;
#15=SECURITY_CLASSIFICATION_LEVEL('unclassified') ;
#47=CARTESIAN_POINT(' ',(0.,0.,0.)) ;
#52=CARTESIAN_POINT('Axis2P3D Location',(229.,4.4408920985E-016,0.)) ;
#57=CARTESIAN_POINT('Axis2P3D Location',(230.,4.4408920985E-016,0.)) ;
#61=CARTESIAN_POINT('Vertex',(230.,9.65340818079,5.27368092465)) ;
#63=CARTESIAN_POINT('Vertex',(230.,-9.65340816655,-5.27368095071)) ;
#66=CARTESIAN_POINT('Axis2P3D Location',(229.,-9.65340818079,-5.27368092465)) ;
#70=CARTESIAN_POINT('Vertex',(229.,-8.7758256189,-4.79425538604)) ;
#73=CARTESIAN_POINT('Axis2P3D Location',(229.,4.4408920985E-016,0.)) ;
#77=CARTESIAN_POINT('Vertex',(229.,8.7758256189,4.79425538604)) ;
#80=CARTESIAN_POINT('Axis2P3D Location',(229.,9.65340818079,5.27368092465)) ;
#92=CARTESIAN_POINT('Axis2P3D Location',(229.,-4.4408920985E-016,1.7763568394E-015)) ;
#97=CARTESIAN_POINT('Axis2P3D Location',(230.,-4.4408920985E-016,1.7763568394E-015)) ;
#102=CARTESIAN_POINT('Axis2P3D Location',(229.,-4.4408920985E-016,1.7763568394E-015)) ;
#114=CARTESIAN_POINT('Axis2P3D Location',(230.,10.,0.)) ;
#119=CARTESIAN_POINT('Axis2P3D Location',(230.,0.,-1.33226762955E-015)) ;
#123=CARTESIAN_POINT('Vertex',(230.,10.0921994617,5.51339369395)) ;
#125=CARTESIAN_POINT('Vertex',(230.,-10.0921994808,-5.51339365913)) ;
#128=CARTESIAN_POINT('Axis2P3D Location',(230.,-1.7763568394E-015,-1.88737914186E-015)) ;
#142=CARTESIAN_POINT('Axis2P3D Location',(231.,-1.7763568394E-015,1.7763568394E-015)) ;
#147=CARTESIAN_POINT('Axis2P3D Location',(231.,-10.0921995244,-5.51339357924)) ;
#151=CARTESIAN_POINT('Vertex',(231.,-10.9697820236,-5.99281923255)) ;
#154=CARTESIAN_POINT('Axis2P3D Location',(231.,10.0921994617,5.51339369395)) ;
#158=CARTESIAN_POINT('Vertex',(231.,10.9697820236,5.99281923255)) ;
#161=CARTESIAN_POINT('Axis2P3D Location',(231.,-1.7763568394E-015,1.7763568394E-015)) ;
#173=CARTESIAN_POINT('Axis2P3D Location',(231.,0.,1.7763568394E-015)) ;
#178=CARTESIAN_POINT('Axis2P3D Location',(231.,0.,1.7763568394E-015)) ;
#190=CARTESIAN_POINT('Axis2P3D Location',(350.,12.5,0.)) ;
#195=CARTESIAN_POINT('Axis2P3D Location',(350.,-1.7763568394E-015,2.27595720048E-015)) ;
#199=CARTESIAN_POINT('Vertex',(350.,-10.0921994808,-5.51339365913)) ;
#201=CARTESIAN_POINT('Vertex',(350.,10.0921994617,5.51339369395)) ;
#204=CARTESIAN_POINT('Axis2P3D Location',(350.,3.5527136788E-015,-5.55111512313E-016)) ;
#214=CARTESIAN_POINT('Axis2P3D Location',(175.,0.,0.)) ;
#219=CARTESIAN_POINT('Line Origine',(290.,10.9697820236,5.99281923255)) ;
#223=CARTESIAN_POINT('Vertex',(349.,10.9697820236,5.99281923255)) ;
#226=CARTESIAN_POINT('Line Origine',(290.,-10.9697820236,-5.99281923255)) ;
#230=CARTESIAN_POINT('Vertex',(349.,-10.9697820236,-5.99281923255)) ;
#233=CARTESIAN_POINT('Axis2P3D Location',(349.,0.,0.)) ;
#245=CARTESIAN_POINT('Axis2P3D Location',(349.,0.,0.)) ;
#257=CARTESIAN_POINT('Axis2P3D Location',(349.,0.,8.881784197E-016)) ;
#262=CARTESIAN_POINT('Axis2P3D Location',(349.,-10.0921994617,-5.51339369395)) ;
#267=CARTESIAN_POINT('Axis2P3D Location',(349.,10.0921994617,5.51339369395)) ;
#279=CARTESIAN_POINT('Axis2P3D Location',(349.,3.5527136788E-015,-2.6645352591E-015)) ;
#291=CARTESIAN_POINT('Axis2P3D Location',(50.,3.06151588456E-016,0.)) ;
#296=CARTESIAN_POINT('Line Origine',(48.556624327,-2.5,9.86076131526E-032)) ;
#300=CARTESIAN_POINT('Vertex',(50.,3.06151588456E-016,-1.25550673808E-047)) ;
#302=CARTESIAN_POINT('Vertex',(47.1132486541,-5.,0.)) ;
#305=CARTESIAN_POINT('Axis2P3D Location',(47.1132486541,8.881784197E-016,1.33226762955E-015)) ;
#309=CARTESIAN_POINT('Vertex',(47.1132486541,5.,6.12303176911E-016)) ;
#312=CARTESIAN_POINT('Line Origine',(48.556624327,2.5,-7.35102625472E-016)) ;
#323=CARTESIAN_POINT('Axis2P3D Location',(50.,3.06151588456E-016,-3.06151588456E-016)) ;
#328=CARTESIAN_POINT('Axis2P3D Location',(47.1132486541,-4.93038065763E-032,4.4408920985E-016)) ;
#339=CARTESIAN_POINT('Axis2P3D Location',(25.,0.,0.)) ;
#344=CARTESIAN_POINT('Axis2P3D Location',(0.5,0.,0.)) ;
#348=CARTESIAN_POINT('Vertex',(0.5,-5.,-1.22460635382E-015)) ;
#350=CARTESIAN_POINT('Vertex',(0.5,5.,6.12303176911E-016)) ;
#353=CARTESIAN_POINT('Line Origine',(23.806624327,5.,6.12303176911E-016)) ;
#358=CARTESIAN_POINT('Line Origine',(23.806624327,-5.,0.)) ;
#370=CARTESIAN_POINT('Axis2P3D Location',(0.5,0.,0.)) ;
#382=CARTESIAN_POINT('Axis2P3D Location',(5.5,-1.15907283771E-013,4.92939022934E-014)) ;
#387=CARTESIAN_POINT('Line Origine',(0.25,5.25,-2.20123847272E-009)) ;
#391=CARTESIAN_POINT('Vertex',(0.,5.5,7.39960321919E-007)) ;
#394=CARTESIAN_POINT('Axis2P3D Location',(1.35891298214E-013,1.11022302462E-014,-4.4408920985E-015)) ;
#398=CARTESIAN_POINT('Vertex',(0.,-5.5,-1.94335107902E-015)) ;
#401=CARTESIAN_POINT('Line Origine',(0.25,-5.25,3.85614983365E-016)) ;
#413=CARTESIAN_POINT('Axis2P3D Location',(5.5,-1.11022302463E-013,-1.30784272301E-013)) ;
#418=CARTESIAN_POINT('Axis2P3D Location',(-5.50670620214E-014,1.11022302463E-014,1.33226762955E-014)) ;
#430=CARTESIAN_POINT('Axis2P3D Location',(175.,0.,0.)) ;
#435=CARTESIAN_POINT('Line Origine',(114.75,-8.7758256189,-4.79425538604)) ;
#439=CARTESIAN_POINT('Vertex',(0.5,-8.7758256189,-4.79425538604)) ;
#442=CARTESIAN_POINT('Line Origine',(114.75,8.7758256189,4.79425538604)) ;
#446=CARTESIAN_POINT('Vertex',(0.5,8.7758256189,4.79425538604)) ;
#449=CARTESIAN_POINT('Axis2P3D Location',(0.5,0.,0.)) ;
#461=CARTESIAN_POINT('Axis2P3D Location',(0.5,0.,0.)) ;
#473=CARTESIAN_POINT('Axis2P3D Location',(0.,10.,0.)) ;
#478=CARTESIAN_POINT('Axis2P3D Location',(0.,3.5527136788E-015,2.22044604925E-015)) ;
#482=CARTESIAN_POINT('Vertex',(0.,8.33703433796,4.55454261674)) ;
#484=CARTESIAN_POINT('Vertex',(0.,-8.33703470346,-4.55454194769)) ;
#487=CARTESIAN_POINT('Axis2P3D Location',(0.,3.5527136788E-015,8.881784197E-016)) ;
#501=CARTESIAN_POINT('Axis2P3D Location',(-9.5,9.7699626167E-015,-5.24025267623E-014)) ;
#506=CARTESIAN_POINT('Line Origine',(0.25,-8.55643045806,-4.67439812344)) ;
#511=CARTESIAN_POINT('Line Origine',(0.25,8.55642997843,4.67439900139)) ;
#523=CARTESIAN_POINT('Axis2P3D Location',(-9.5,-6.37268016135E-014,3.64153152077E-014)) ;
#53=DIRECTION('Axis2P3D Direction',(1.,0.,-0.)) ;
#54=DIRECTION('Axis2P3D XDirection',(0.,-0.87758256189,-0.479425538604)) ;
#58=DIRECTION('Axis2P3D Direction',(1.,0.,-0.)) ;
#67=DIRECTION('Axis2P3D Direction',(0.,-0.479425538604,0.87758256189)) ;
#74=DIRECTION('Axis2P3D Direction',(1.,0.,-0.)) ;
#81=DIRECTION('Axis2P3D Direction',(-0.,0.479425538604,-0.87758256189)) ;
#93=DIRECTION('Axis2P3D Direction',(1.,-0.,0.)) ;
#94=DIRECTION('Axis2P3D XDirection',(0.,0.87758256189,0.479425538604)) ;
#98=DIRECTION('Axis2P3D Direction',(1.,-0.,0.)) ;
#103=DIRECTION('Axis2P3D Direction',(1.,-0.,0.)) ;
#115=DIRECTION('Axis2P3D Direction',(1.,0.,0.)) ;
#116=DIRECTION('Axis2P3D XDirection',(0.,1.,0.)) ;
#120=DIRECTION('Axis2P3D Direction',(1.,0.,0.)) ;
#129=DIRECTION('Axis2P3D Direction',(1.,0.,0.)) ;
#143=DIRECTION('Axis2P3D Direction',(1.,0.,-0.)) ;
#144=DIRECTION('Axis2P3D XDirection',(0.,-0.87758256734,-0.479425528629)) ;
#148=DIRECTION('Axis2P3D Direction',(0.,-0.479425528629,0.87758256734)) ;
#155=DIRECTION('Axis2P3D Direction',(-0.,0.479425538604,-0.87758256189)) ;
#162=DIRECTION('Axis2P3D Direction',(1.,0.,-0.)) ;
#174=DIRECTION('Axis2P3D Direction',(1.,-0.,0.)) ;
#175=DIRECTION('Axis2P3D XDirection',(0.,0.87758256189,0.479425538604)) ;
#179=DIRECTION('Axis2P3D Direction',(1.,-0.,0.)) ;
#191=DIRECTION('Axis2P3D Direction',(1.,0.,0.)) ;
#192=DIRECTION('Axis2P3D XDirection',(0.,1.,0.)) ;
#196=DIRECTION('Axis2P3D Direction',(1.,0.,0.)) ;
#205=DIRECTION('Axis2P3D Direction',(1.,0.,0.)) ;
#215=DIRECTION('Axis2P3D Direction',(1.,0.,0.)) ;
#216=DIRECTION('Axis2P3D XDirection',(-0.,-0.87758256189,-0.479425538604)) ;
#220=DIRECTION('Vector Direction',(1.,0.,0.)) ;
#227=DIRECTION('Vector Direction',(1.,0.,0.)) ;
#234=DIRECTION('Axis2P3D Direction',(1.,0.,0.)) ;
#246=DIRECTION('Axis2P3D Direction',(1.,0.,0.)) ;
#258=DIRECTION('Axis2P3D Direction',(1.,0.,-0.)) ;
#259=DIRECTION('Axis2P3D XDirection',(0.,-0.87758256189,-0.479425538604)) ;
#263=DIRECTION('Axis2P3D Direction',(0.,-0.479425538604,0.87758256189)) ;
#268=DIRECTION('Axis2P3D Direction',(-0.,0.479425538604,-0.87758256189)) ;
#280=DIRECTION('Axis2P3D Direction',(1.,-0.,0.)) ;
#281=DIRECTION('Axis2P3D XDirection',(0.,0.87758256189,0.479425538604)) ;
#292=DIRECTION('Axis2P3D Direction',(-1.,2.01620008617E-016,4.61511044732E-016)) ;
#293=DIRECTION('Axis2P3D XDirection',(-2.15079735663E-016,-1.,-2.6645352591E-016)) ;
#297=DIRECTION('Vector Direction',(-0.5,-0.866025403784,3.41586791987E-032)) ;
#306=DIRECTION('Axis2P3D Direction',(-1.,-9.47127772284E-032,4.61511044732E-016)) ;
#313=DIRECTION('Vector Direction',(-0.5,0.866025403784,-2.54647019219E-016)) ;
#324=DIRECTION('Axis2P3D Direction',(-1.,-1.06054021205E-016,2.59891036115E-016)) ;
#325=DIRECTION('Axis2P3D XDirection',(1.07539867831E-016,-1.,-3.33739112734E-016)) ;
#329=DIRECTION('Axis2P3D Direction',(1.,7.08225930943E-032,-2.59891036115E-016)) ;
#340=DIRECTION('Axis2P3D Direction',(-1.,0.,0.)) ;
#341=DIRECTION('Axis2P3D XDirection',(0.,1.,1.22464679915E-016)) ;
#345=DIRECTION('Axis2P3D Direction',(-1.,0.,0.)) ;
#354=DIRECTION('Vector Direction',(-1.,0.,0.)) ;
#359=DIRECTION('Vector Direction',(-1.,0.,0.)) ;
#371=DIRECTION('Axis2P3D Direction',(-1.,0.,0.)) ;
#383=DIRECTION('Axis2P3D Direction',(-1.,2.30926389122E-014,-9.7699626167E-015)) ;
#384=DIRECTION('Axis2P3D XDirection',(-2.30490577794E-014,-1.,4.54098367179E-016)) ;
#388=DIRECTION('Vector Direction',(-0.707106781187,0.707106781187,-2.96484858499E-010)) ;
#395=DIRECTION('Axis2P3D Direction',(1.,6.14448689457E-030,9.7699626167E-015)) ;
#402=DIRECTION('Vector Direction',(-0.707106781187,-0.707106781187,-6.58731078345E-015)) ;
#414=DIRECTION('Axis2P3D Direction',(-1.,2.22044604925E-014,2.62012633812E-014)) ;
#415=DIRECTION('Axis2P3D XDirection',(2.22588043698E-014,1.,1.34538234091E-007)) ;
#419=DIRECTION('Axis2P3D Direction',(1.,-1.41360418562E-014,-3.00027633386E-014)) ;
#431=DIRECTION('Axis2P3D Direction',(1.,0.,0.)) ;
#432=DIRECTION('Axis2P3D XDirection',(-0.,-0.87758256189,-0.479425538604)) ;
#436=DIRECTION('Vector Direction',(1.,0.,0.)) ;
#443=DIRECTION('Vector Direction',(1.,0.,0.)) ;
#450=DIRECTION('Axis2P3D Direction',(1.,0.,0.)) ;
#462=DIRECTION('Axis2P3D Direction',(1.,0.,0.)) ;
#474=DIRECTION('Axis2P3D Direction',(1.,0.,0.)) ;
#475=DIRECTION('Axis2P3D XDirection',(0.,1.,0.)) ;
#479=DIRECTION('Axis2P3D Direction',(1.,0.,0.)) ;
#488=DIRECTION('Axis2P3D Direction',(1.,0.,0.)) ;
#502=DIRECTION('Axis2P3D Direction',(1.,-8.881784197E-016,5.3290705182E-015)) ;
#503=DIRECTION('Axis2P3D XDirection',(1.71221572076E-015,-0.877582611083,-0.479425448558)) ;
#507=DIRECTION('Vector Direction',(0.707106781187,-0.620544615348,-0.339004985749)) ;
#512=DIRECTION('Vector Direction',(0.707106781187,0.620544580564,0.339005049421)) ;
#524=DIRECTION('Axis2P3D Direction',(1.,6.43929354283E-015,-3.5527136788E-015)) ;
#525=DIRECTION('Axis2P3D XDirection',(-3.9512670479E-015,0.87758256189,0.479425538604)) ;
#48=AXIS2_PLACEMENT_3D(' ',#47,$,$) ;
#55=AXIS2_PLACEMENT_3D('Torus Axis2P3D',#52,#53,#54) ;
#59=AXIS2_PLACEMENT_3D('Circle Axis2P3D',#57,#58,$) ;
#68=AXIS2_PLACEMENT_3D('Circle Axis2P3D',#66,#67,$) ;
#75=AXIS2_PLACEMENT_3D('Circle Axis2P3D',#73,#74,$) ;
#82=AXIS2_PLACEMENT_3D('Circle Axis2P3D',#80,#81,$) ;
#95=AXIS2_PLACEMENT_3D('Torus Axis2P3D',#92,#93,#94) ;
#99=AXIS2_PLACEMENT_3D('Circle Axis2P3D',#97,#98,$) ;
#104=AXIS2_PLACEMENT_3D('Circle Axis2P3D',#102,#103,$) ;
#117=AXIS2_PLACEMENT_3D('Plane Axis2P3D',#114,#115,#116) ;
#121=AXIS2_PLACEMENT_3D('Circle Axis2P3D',#119,#120,$) ;
#130=AXIS2_PLACEMENT_3D('Circle Axis2P3D',#128,#129,$) ;
#145=AXIS2_PLACEMENT_3D('Torus Axis2P3D',#142,#143,#144) ;
#149=AXIS2_PLACEMENT_3D('Circle Axis2P3D',#147,#148,$) ;
#156=AXIS2_PLACEMENT_3D('Circle Axis2P3D',#154,#155,$) ;
#163=AXIS2_PLACEMENT_3D('Circle Axis2P3D',#161,#162,$) ;
#176=AXIS2_PLACEMENT_3D('Torus Axis2P3D',#173,#174,#175) ;
#180=AXIS2_PLACEMENT_3D('Circle Axis2P3D',#178,#179,$) ;
#193=AXIS2_PLACEMENT_3D('Plane Axis2P3D',#190,#191,#192) ;
#197=AXIS2_PLACEMENT_3D('Circle Axis2P3D',#195,#196,$) ;
#206=AXIS2_PLACEMENT_3D('Circle Axis2P3D',#204,#205,$) ;
#217=AXIS2_PLACEMENT_3D('Cylinder Axis2P3D',#214,#215,#216) ;
#235=AXIS2_PLACEMENT_3D('Circle Axis2P3D',#233,#234,$) ;
#247=AXIS2_PLACEMENT_3D('Circle Axis2P3D',#245,#246,$) ;
#260=AXIS2_PLACEMENT_3D('Torus Axis2P3D',#257,#258,#259) ;
#264=AXIS2_PLACEMENT_3D('Circle Axis2P3D',#262,#263,$) ;
#269=AXIS2_PLACEMENT_3D('Circle Axis2P3D',#267,#268,$) ;
#282=AXIS2_PLACEMENT_3D('Torus Axis2P3D',#279,#280,#281) ;
#294=AXIS2_PLACEMENT_3D('Cone Axis2P3D',#291,#292,#293) ;
#307=AXIS2_PLACEMENT_3D('Circle Axis2P3D',#305,#306,$) ;
#326=AXIS2_PLACEMENT_3D('Cone Axis2P3D',#323,#324,#325) ;
#330=AXIS2_PLACEMENT_3D('Circle Axis2P3D',#328,#329,$) ;
#342=AXIS2_PLACEMENT_3D('Cylinder Axis2P3D',#339,#340,#341) ;
#346=AXIS2_PLACEMENT_3D('Circle Axis2P3D',#344,#345,$) ;
#372=AXIS2_PLACEMENT_3D('Circle Axis2P3D',#370,#371,$) ;
#385=AXIS2_PLACEMENT_3D('Cone Axis2P3D',#382,#383,#384) ;
#396=AXIS2_PLACEMENT_3D('Circle Axis2P3D',#394,#395,$) ;
#416=AXIS2_PLACEMENT_3D('Cone Axis2P3D',#413,#414,#415) ;
#420=AXIS2_PLACEMENT_3D('Circle Axis2P3D',#418,#419,$) ;
#433=AXIS2_PLACEMENT_3D('Cylinder Axis2P3D',#430,#431,#432) ;
#451=AXIS2_PLACEMENT_3D('Circle Axis2P3D',#449,#450,$) ;
#463=AXIS2_PLACEMENT_3D('Circle Axis2P3D',#461,#462,$) ;
#476=AXIS2_PLACEMENT_3D('Plane Axis2P3D',#473,#474,#475) ;
#480=AXIS2_PLACEMENT_3D('Circle Axis2P3D',#478,#479,$) ;
#489=AXIS2_PLACEMENT_3D('Circle Axis2P3D',#487,#488,$) ;
#504=AXIS2_PLACEMENT_3D('Cone Axis2P3D',#501,#502,#503) ;
#526=AXIS2_PLACEMENT_3D('Cone Axis2P3D',#523,#524,#525) ;
#40=PRODUCT_DEFINITION_SHAPE(' ',' ',#14) ;
#31=APPROVAL_PERSON_ORGANIZATION(#25,#21,#19) ;
#25=PERSON_AND_ORGANIZATION(#22,#23) ;
#22=PERSON(' ',' ',' ',$,$,$) ;
#23=ORGANIZATION(' ',' ',' ') ;
#21=APPROVAL(#20,' ') ;
#20=APPROVAL_STATUS('not_yet_approved') ;
#19=APPROVAL_ROLE('APPROVER') ;
#13=DATE_AND_TIME(#11,#12) ;
#12=LOCAL_TIME(17,17,59.,#10) ;
#10=COORDINATED_UNIVERSAL_TIME_OFFSET(0,0,.AHEAD.) ;
#86=ORIENTED_EDGE('',*,*,#65,.T.) ;
#87=ORIENTED_EDGE('',*,*,#72,.T.) ;
#88=ORIENTED_EDGE('',*,*,#79,.F.) ;
#89=ORIENTED_EDGE('',*,*,#84,.F.) ;
#108=ORIENTED_EDGE('',*,*,#101,.T.) ;
#109=ORIENTED_EDGE('',*,*,#84,.T.) ;
#110=ORIENTED_EDGE('',*,*,#106,.F.) ;
#111=ORIENTED_EDGE('',*,*,#72,.F.) ;
#134=ORIENTED_EDGE('',*,*,#127,.F.) ;
#135=ORIENTED_EDGE('',*,*,#132,.F.) ;
#138=ORIENTED_EDGE('',*,*,#65,.F.) ;
#139=ORIENTED_EDGE('',*,*,#101,.F.) ;
#167=ORIENTED_EDGE('',*,*,#153,.T.) ;
#168=ORIENTED_EDGE('',*,*,#132,.T.) ;
#169=ORIENTED_EDGE('',*,*,#160,.F.) ;
#170=ORIENTED_EDGE('',*,*,#165,.F.) ;
#184=ORIENTED_EDGE('',*,*,#160,.T.) ;
#185=ORIENTED_EDGE('',*,*,#127,.T.) ;
#186=ORIENTED_EDGE('',*,*,#153,.F.) ;
#187=ORIENTED_EDGE('',*,*,#182,.F.) ;
#210=ORIENTED_EDGE('',*,*,#203,.T.) ;
#211=ORIENTED_EDGE('',*,*,#208,.T.) ;
#239=ORIENTED_EDGE('',*,*,#225,.T.) ;
#240=ORIENTED_EDGE('',*,*,#182,.T.) ;
#241=ORIENTED_EDGE('',*,*,#232,.F.) ;
#242=ORIENTED_EDGE('',*,*,#237,.F.) ;
#251=ORIENTED_EDGE('',*,*,#232,.T.) ;
#252=ORIENTED_EDGE('',*,*,#165,.T.) ;
#253=ORIENTED_EDGE('',*,*,#225,.F.) ;
#254=ORIENTED_EDGE('',*,*,#249,.F.) ;
#273=ORIENTED_EDGE('',*,*,#266,.T.) ;
#274=ORIENTED_EDGE('',*,*,#249,.T.) ;
#275=ORIENTED_EDGE('',*,*,#271,.F.) ;
#276=ORIENTED_EDGE('',*,*,#203,.F.) ;
#285=ORIENTED_EDGE('',*,*,#271,.T.) ;
#286=ORIENTED_EDGE('',*,*,#237,.T.) ;
#287=ORIENTED_EDGE('',*,*,#266,.F.) ;
#288=ORIENTED_EDGE('',*,*,#208,.F.) ;
#318=ORIENTED_EDGE('',*,*,#304,.T.) ;
#319=ORIENTED_EDGE('',*,*,#311,.F.) ;
#320=ORIENTED_EDGE('',*,*,#316,.F.) ;
#334=ORIENTED_EDGE('',*,*,#316,.T.) ;
#335=ORIENTED_EDGE('',*,*,#332,.F.) ;
#336=ORIENTED_EDGE('',*,*,#304,.F.) ;
#364=ORIENTED_EDGE('',*,*,#352,.T.) ;
#365=ORIENTED_EDGE('',*,*,#357,.T.) ;
#366=ORIENTED_EDGE('',*,*,#311,.T.) ;
#367=ORIENTED_EDGE('',*,*,#362,.F.) ;
#376=ORIENTED_EDGE('',*,*,#374,.T.) ;
#377=ORIENTED_EDGE('',*,*,#362,.T.) ;
#378=ORIENTED_EDGE('',*,*,#332,.T.) ;
#379=ORIENTED_EDGE('',*,*,#357,.F.) ;
#407=ORIENTED_EDGE('',*,*,#393,.T.) ;
#408=ORIENTED_EDGE('',*,*,#400,.T.) ;
#409=ORIENTED_EDGE('',*,*,#405,.F.) ;
#410=ORIENTED_EDGE('',*,*,#374,.F.) ;
#424=ORIENTED_EDGE('',*,*,#405,.T.) ;
#425=ORIENTED_EDGE('',*,*,#422,.T.) ;
#426=ORIENTED_EDGE('',*,*,#393,.F.) ;
#427=ORIENTED_EDGE('',*,*,#352,.F.) ;
#455=ORIENTED_EDGE('',*,*,#441,.F.) ;
#456=ORIENTED_EDGE('',*,*,#106,.T.) ;
#457=ORIENTED_EDGE('',*,*,#448,.T.) ;
#458=ORIENTED_EDGE('',*,*,#453,.T.) ;
#467=ORIENTED_EDGE('',*,*,#448,.F.) ;
#468=ORIENTED_EDGE('',*,*,#79,.T.) ;
#469=ORIENTED_EDGE('',*,*,#441,.T.) ;
#470=ORIENTED_EDGE('',*,*,#465,.T.) ;
#493=ORIENTED_EDGE('',*,*,#486,.F.) ;
#494=ORIENTED_EDGE('',*,*,#491,.F.) ;
#497=ORIENTED_EDGE('',*,*,#400,.F.) ;
#498=ORIENTED_EDGE('',*,*,#422,.F.) ;
#517=ORIENTED_EDGE('',*,*,#510,.T.) ;
#518=ORIENTED_EDGE('',*,*,#491,.T.) ;
#519=ORIENTED_EDGE('',*,*,#515,.F.) ;
#520=ORIENTED_EDGE('',*,*,#465,.F.) ;
#529=ORIENTED_EDGE('',*,*,#515,.T.) ;
#530=ORIENTED_EDGE('',*,*,#486,.T.) ;
#531=ORIENTED_EDGE('',*,*,#510,.F.) ;
#532=ORIENTED_EDGE('',*,*,#453,.F.) ;
#140=FACE_BOUND('',#137,.T.) ;
#499=FACE_BOUND('',#496,.T.) ;
#51=CLOSED_SHELL('Closed Shell',(#91,#113,#141,#172,#189,#213,#244,#256,#278,#290,#322,#338,#369,#381,#412,#429,#460,#472,#500,#522,#534)) ;
#221=VECTOR('Line Direction',#220,1.) ;
#228=VECTOR('Line Direction',#227,1.) ;
#298=VECTOR('Line Direction',#297,1.) ;
#314=VECTOR('Line Direction',#313,1.) ;
#355=VECTOR('Line Direction',#354,1.) ;
#360=VECTOR('Line Direction',#359,1.) ;
#389=VECTOR('Line Direction',#388,1.) ;
#403=VECTOR('Line Direction',#402,1.) ;
#437=VECTOR('Line Direction',#436,1.) ;
#444=VECTOR('Line Direction',#443,1.) ;
#508=VECTOR('Line Direction',#507,1.) ;
#513=VECTOR('Line Direction',#512,1.) ;
#536=ADVANCED_BREP_SHAPE_REPRESENTATION('NONE',(#535),#46) ;
#49=SHAPE_REPRESENTATION(' ',(#48),#46) ;
#91=ADVANCED_FACE('Corps principal',(#90),#56,.F.) ;
#113=ADVANCED_FACE('Corps principal',(#112),#96,.F.) ;
#141=ADVANCED_FACE('Corps principal',(#136,#140),#118,.F.) ;
#172=ADVANCED_FACE('Corps principal',(#171),#146,.T.) ;
#189=ADVANCED_FACE('Corps principal',(#188),#177,.T.) ;
#213=ADVANCED_FACE('Corps principal',(#212),#194,.T.) ;
#244=ADVANCED_FACE('Corps principal',(#243),#218,.T.) ;
#256=ADVANCED_FACE('Corps principal',(#255),#218,.T.) ;
#278=ADVANCED_FACE('Corps principal',(#277),#261,.T.) ;
#290=ADVANCED_FACE('Corps principal',(#289),#283,.T.) ;
#322=ADVANCED_FACE('Corps principal',(#321),#295,.F.) ;
#338=ADVANCED_FACE('Corps principal',(#337),#327,.F.) ;
#369=ADVANCED_FACE('Corps principal',(#368),#343,.F.) ;
#381=ADVANCED_FACE('Corps principal',(#380),#343,.F.) ;
#412=ADVANCED_FACE('Corps principal',(#411),#386,.F.) ;
#429=ADVANCED_FACE('Corps principal',(#428),#417,.F.) ;
#460=ADVANCED_FACE('Corps principal',(#459),#434,.T.) ;
#472=ADVANCED_FACE('Corps principal',(#471),#434,.T.) ;
#500=ADVANCED_FACE('Corps principal',(#495,#499),#477,.F.) ;
#522=ADVANCED_FACE('Corps principal',(#521),#505,.T.) ;
#534=ADVANCED_FACE('Corps principal',(#533),#527,.T.) ;
#4=APPLICATION_PROTOCOL_DEFINITION('international standard','config_control_design',1994,#1) ;
#32=APPROVAL_DATE_TIME(#13,#21) ;
#535=MANIFOLD_SOLID_BREP('Corps principal',#51) ;
#11=CALENDAR_DATE(2023,26,11) ;
#30=CC_DESIGN_APPROVAL(#21,(#16,#6,#14)) ;
#18=CC_DESIGN_DATE_AND_TIME_ASSIGNMENT(#13,#17,(#16)) ;
#29=CC_DESIGN_DATE_AND_TIME_ASSIGNMENT(#13,#28,(#14)) ;
#17=DATE_TIME_ROLE('classification_date') ;
#28=DATE_TIME_ROLE('creation_date') ;
#27=CC_DESIGN_PERSON_AND_ORGANIZATION_ASSIGNMENT(#25,#26,(#16)) ;
#33=CC_DESIGN_PERSON_AND_ORGANIZATION_ASSIGNMENT(#25,#34,(#6)) ;
#35=CC_DESIGN_PERSON_AND_ORGANIZATION_ASSIGNMENT(#25,#36,(#6,#14)) ;
#37=CC_DESIGN_PERSON_AND_ORGANIZATION_ASSIGNMENT(#25,#38,(#5)) ;
#26=PERSON_AND_ORGANIZATION_ROLE('classification_officer') ;
#34=PERSON_AND_ORGANIZATION_ROLE('design_supplier') ;
#36=PERSON_AND_ORGANIZATION_ROLE('creator') ;
#38=PERSON_AND_ORGANIZATION_ROLE('design_owner') ;
#39=CC_DESIGN_SECURITY_CLASSIFICATION(#16,(#6)) ;
#60=CIRCLE('generated circle',#59,11.) ;
#69=CIRCLE('generated circle',#68,1.) ;
#76=CIRCLE('generated circle',#75,10.) ;
#83=CIRCLE('generated circle',#82,1.) ;
#100=CIRCLE('generated circle',#99,11.) ;
#105=CIRCLE('generated circle',#104,10.) ;
#122=CIRCLE('generated circle',#121,11.5) ;
#131=CIRCLE('generated circle',#130,11.5) ;
#150=CIRCLE('generated circle',#149,1.) ;
#157=CIRCLE('generated circle',#156,1.) ;
#164=CIRCLE('generated circle',#163,12.5) ;
#181=CIRCLE('generated circle',#180,12.5) ;
#198=CIRCLE('generated circle',#197,11.5) ;
#207=CIRCLE('generated circle',#206,11.5) ;
#236=CIRCLE('generated circle',#235,12.5) ;
#248=CIRCLE('generated circle',#247,12.5) ;
#265=CIRCLE('generated circle',#264,1.) ;
#270=CIRCLE('generated circle',#269,1.) ;
#308=CIRCLE('generated circle',#307,5.) ;
#331=CIRCLE('generated circle',#330,5.) ;
#347=CIRCLE('generated circle',#346,5.) ;
#373=CIRCLE('generated circle',#372,5.) ;
#397=CIRCLE('generated circle',#396,5.5) ;
#421=CIRCLE('generated circle',#420,5.5) ;
#452=CIRCLE('generated circle',#451,10.) ;
#464=CIRCLE('generated circle',#463,10.) ;
#481=CIRCLE('generated circle',#480,9.5) ;
#490=CIRCLE('generated circle',#489,9.5) ;
#295=CONICAL_SURFACE('Cone',#294,0.,1.0471975512) ;
#327=CONICAL_SURFACE('Cone',#326,0.,1.0471975512) ;
#386=CONICAL_SURFACE('Cone',#385,0.,0.785398163397) ;
#417=CONICAL_SURFACE('Cone',#416,0.,0.785398163397) ;
#505=CONICAL_SURFACE('Cone',#504,0.,0.785398163397) ;
#527=CONICAL_SURFACE('Cone',#526,0.,0.785398163397) ;
#537=SHAPE_REPRESENTATION_RELATIONSHIP(' ',' ',#49,#536) ;
#218=CYLINDRICAL_SURFACE('generated cylinder',#217,12.5) ;
#343=CYLINDRICAL_SURFACE('generated cylinder',#342,5.) ;
#434=CYLINDRICAL_SURFACE('generated cylinder',#433,10.) ;
#56=TOROIDAL_SURFACE('homeo Torus',#55,11.,1.) ;
#96=TOROIDAL_SURFACE('homeo Torus',#95,11.,1.) ;
#146=TOROIDAL_SURFACE('homeo Torus',#145,11.5,1.) ;
#177=TOROIDAL_SURFACE('homeo Torus',#176,11.5,1.) ;
#261=TOROIDAL_SURFACE('homeo Torus',#260,11.5,1.) ;
#283=TOROIDAL_SURFACE('homeo Torus',#282,11.5,1.) ;
#3=DESIGN_CONTEXT(' ',#1,'design') ;
#65=EDGE_CURVE('',#62,#64,#60,.F.) ;
#72=EDGE_CURVE('',#64,#71,#69,.T.) ;
#79=EDGE_CURVE('',#78,#71,#76,.F.) ;
#84=EDGE_CURVE('',#62,#78,#83,.T.) ;
#101=EDGE_CURVE('',#64,#62,#100,.F.) ;
#106=EDGE_CURVE('',#71,#78,#105,.F.) ;
#127=EDGE_CURVE('',#124,#126,#122,.T.) ;
#132=EDGE_CURVE('',#126,#124,#131,.T.) ;
#153=EDGE_CURVE('',#152,#126,#150,.F.) ;
#160=EDGE_CURVE('',#159,#124,#157,.F.) ;
#165=EDGE_CURVE('',#152,#159,#164,.T.) ;
#182=EDGE_CURVE('',#159,#152,#181,.T.) ;
#203=EDGE_CURVE('',#200,#202,#198,.T.) ;
#208=EDGE_CURVE('',#202,#200,#207,.T.) ;
#225=EDGE_CURVE('',#224,#159,#222,.F.) ;
#232=EDGE_CURVE('',#231,#152,#229,.F.) ;
#237=EDGE_CURVE('',#224,#231,#236,.T.) ;
#249=EDGE_CURVE('',#231,#224,#248,.T.) ;
#266=EDGE_CURVE('',#200,#231,#265,.F.) ;
#271=EDGE_CURVE('',#202,#224,#270,.F.) ;
#304=EDGE_CURVE('',#301,#303,#299,.T.) ;
#311=EDGE_CURVE('',#310,#303,#308,.F.) ;
#316=EDGE_CURVE('',#301,#310,#315,.T.) ;
#332=EDGE_CURVE('',#303,#310,#331,.T.) ;
#352=EDGE_CURVE('',#349,#351,#347,.T.) ;
#357=EDGE_CURVE('',#351,#310,#356,.F.) ;
#362=EDGE_CURVE('',#349,#303,#361,.F.) ;
#374=EDGE_CURVE('',#351,#349,#373,.T.) ;
#393=EDGE_CURVE('',#351,#392,#390,.T.) ;
#400=EDGE_CURVE('',#392,#399,#397,.F.) ;
#405=EDGE_CURVE('',#349,#399,#404,.T.) ;
#422=EDGE_CURVE('',#399,#392,#421,.F.) ;
#441=EDGE_CURVE('',#71,#440,#438,.F.) ;
#448=EDGE_CURVE('',#78,#447,#445,.F.) ;
#453=EDGE_CURVE('',#447,#440,#452,.T.) ;
#465=EDGE_CURVE('',#440,#447,#464,.T.) ;
#486=EDGE_CURVE('',#483,#485,#481,.T.) ;
#491=EDGE_CURVE('',#485,#483,#490,.T.) ;
#510=EDGE_CURVE('',#440,#485,#509,.F.) ;
#515=EDGE_CURVE('',#447,#483,#514,.F.) ;
#85=EDGE_LOOP('',(#86,#87,#88,#89)) ;
#107=EDGE_LOOP('',(#108,#109,#110,#111)) ;
#133=EDGE_LOOP('',(#134,#135)) ;
#137=EDGE_LOOP('',(#138,#139)) ;
#166=EDGE_LOOP('',(#167,#168,#169,#170)) ;
#183=EDGE_LOOP('',(#184,#185,#186,#187)) ;
#209=EDGE_LOOP('',(#210,#211)) ;
#238=EDGE_LOOP('',(#239,#240,#241,#242)) ;
#250=EDGE_LOOP('',(#251,#252,#253,#254)) ;
#272=EDGE_LOOP('',(#273,#274,#275,#276)) ;
#284=EDGE_LOOP('',(#285,#286,#287,#288)) ;
#317=EDGE_LOOP('',(#318,#319,#320)) ;
#333=EDGE_LOOP('',(#334,#335,#336)) ;
#363=EDGE_LOOP('',(#364,#365,#366,#367)) ;
#375=EDGE_LOOP('',(#376,#377,#378,#379)) ;
#406=EDGE_LOOP('',(#407,#408,#409,#410)) ;
#423=EDGE_LOOP('',(#424,#425,#426,#427)) ;
#454=EDGE_LOOP('',(#455,#456,#457,#458)) ;
#466=EDGE_LOOP('',(#467,#468,#469,#470)) ;
#492=EDGE_LOOP('',(#493,#494)) ;
#496=EDGE_LOOP('',(#497,#498)) ;
#516=EDGE_LOOP('',(#517,#518,#519,#520)) ;
#528=EDGE_LOOP('',(#529,#530,#531,#532)) ;
#90=FACE_OUTER_BOUND('',#85,.T.) ;
#112=FACE_OUTER_BOUND('',#107,.T.) ;
#136=FACE_OUTER_BOUND('',#133,.T.) ;
#171=FACE_OUTER_BOUND('',#166,.T.) ;
#188=FACE_OUTER_BOUND('',#183,.T.) ;
#212=FACE_OUTER_BOUND('',#209,.T.) ;
#243=FACE_OUTER_BOUND('',#238,.T.) ;
#255=FACE_OUTER_BOUND('',#250,.T.) ;
#277=FACE_OUTER_BOUND('',#272,.T.) ;
#289=FACE_OUTER_BOUND('',#284,.T.) ;
#321=FACE_OUTER_BOUND('',#317,.T.) ;
#337=FACE_OUTER_BOUND('',#333,.T.) ;
#368=FACE_OUTER_BOUND('',#363,.T.) ;
#380=FACE_OUTER_BOUND('',#375,.T.) ;
#411=FACE_OUTER_BOUND('',#406,.T.) ;
#428=FACE_OUTER_BOUND('',#423,.T.) ;
#459=FACE_OUTER_BOUND('',#454,.T.) ;
#471=FACE_OUTER_BOUND('',#466,.T.) ;
#495=FACE_OUTER_BOUND('',#492,.T.) ;
#521=FACE_OUTER_BOUND('',#516,.T.) ;
#533=FACE_OUTER_BOUND('',#528,.T.) ;
#45=UNCERTAINTY_MEASURE_WITH_UNIT(LENGTH_MEASURE(0.005),#41,'distance_accuracy_value','CONFUSED CURVE UNCERTAINTY') ;
#222=LINE('Line',#219,#221) ;
#229=LINE('Line',#226,#228) ;
#299=LINE('Line',#296,#298) ;
#315=LINE('Line',#312,#314) ;
#356=LINE('Line',#353,#355) ;
#361=LINE('Line',#358,#360) ;
#390=LINE('Line',#387,#389) ;
#404=LINE('Line',#401,#403) ;
#438=LINE('Line',#435,#437) ;
#445=LINE('Line',#442,#444) ;
#509=LINE('Line',#506,#508) ;
#514=LINE('Line',#511,#513) ;
#2=MECHANICAL_CONTEXT(' ',#1,'mechanical') ;
#24=PERSONAL_ADDRESS(' ',' ',' ',' ',' ',' ',' ',' ',' ',' ',' ',' ',(#22),' ') ;
#118=PLANE('Plane',#117) ;
#194=PLANE('Plane',#193) ;
#477=PLANE('Plane',#476) ;
#43=PLANE_ANGLE_MEASURE_WITH_UNIT(PLANE_ANGLE_MEASURE(0.0174532925199),#42) ;
#7=PRODUCT_CATEGORY('part',$) ;
#9=PRODUCT_CATEGORY_RELATIONSHIP(' ',' ',#7,#8) ;
#6=PRODUCT_DEFINITION_FORMATION_WITH_SPECIFIED_SOURCE('',' ',#5,.NOT_KNOWN.) ;
#8=PRODUCT_RELATED_PRODUCT_CATEGORY('detail',$,(#5)) ;
#50=SHAPE_DEFINITION_REPRESENTATION(#40,#49) ;
#62=VERTEX_POINT('',#61) ;
#64=VERTEX_POINT('',#63) ;
#71=VERTEX_POINT('',#70) ;
#78=VERTEX_POINT('',#77) ;
#124=VERTEX_POINT('',#123) ;
#126=VERTEX_POINT('',#125) ;
#152=VERTEX_POINT('',#151) ;
#159=VERTEX_POINT('',#158) ;
#200=VERTEX_POINT('',#199) ;
#202=VERTEX_POINT('',#201) ;
#224=VERTEX_POINT('',#223) ;
#231=VERTEX_POINT('',#230) ;
#301=VERTEX_POINT('',#300) ;
#303=VERTEX_POINT('',#302) ;
#310=VERTEX_POINT('',#309) ;
#349=VERTEX_POINT('',#348) ;
#351=VERTEX_POINT('',#350) ;
#392=VERTEX_POINT('',#391) ;
#399=VERTEX_POINT('',#398) ;
#440=VERTEX_POINT('',#439) ;
#447=VERTEX_POINT('',#446) ;
#483=VERTEX_POINT('',#482) ;
#485=VERTEX_POINT('',#484) ;
#41=(LENGTH_UNIT()NAMED_UNIT(*)SI_UNIT(.MILLI.,.METRE.)) ;
#42=(NAMED_UNIT(*)PLANE_ANGLE_UNIT()SI_UNIT($,.RADIAN.)) ;
#44=(NAMED_UNIT(*)SI_UNIT($,.STERADIAN.)SOLID_ANGLE_UNIT()) ;
#46=(GEOMETRIC_REPRESENTATION_CONTEXT(3)GLOBAL_UNCERTAINTY_ASSIGNED_CONTEXT((#45))GLOBAL_UNIT_ASSIGNED_CONTEXT((#41,#42,#44))REPRESENTATION_CONTEXT(' ',' ')) ;
ENDSEC;
END-ISO-10303-21;
