ISO-10303-21;
HEADER;
/* Generated by software containing ST-Developer
 * from STEP Tools, Inc. (www.steptools.com) 
 */

FILE_DESCRIPTION(
/* description */ (''),
/* implementation_level */ '2;1');

FILE_NAME(
/* name */ 'Bottom damper mount R.step',
/* time_stamp */ '2023-10-09T11:59:49+01:00',
/* author */ (''),
/* organization */ (''),
/* preprocessor_version */ 'ST-DEVELOPER v20',
/* originating_system */ 'Autodesk Translation Framework v12.9.0.99',
/* authorisation */ '');

FILE_SCHEMA (('AUTOMOTIVE_DESIGN { 1 0 10303 214 3 1 1 }'));
ENDSEC;

DATA;
#10=MECHANICAL_DESIGN_GEOMETRIC_PRESENTATION_REPRESENTATION('',(#13),#385);
#11=SHAPE_REPRESENTATION_RELATIONSHIP('SRR','None',#391,#12);
#12=ADVANCED_BREP_SHAPE_REPRESENTATION('',(#14),#384);
#13=STYLED_ITEM('',(#402),#14);
#14=MANIFOLD_SOLID_BREP('Alu Damper mount R',#226);
#15=FACE_BOUND('',#47,.T.);
#16=FACE_BOUND('',#48,.T.);
#17=FACE_BOUND('',#49,.T.);
#18=FACE_BOUND('',#53,.T.);
#19=FACE_BOUND('',#54,.T.);
#20=FACE_BOUND('',#55,.T.);
#21=PLANE('',#233);
#22=PLANE('',#241);
#23=PLANE('',#242);
#24=PLANE('',#250);
#25=PLANE('',#252);
#26=CYLINDRICAL_SURFACE('',#231,1.6);
#27=CYLINDRICAL_SURFACE('',#239,2.);
#28=CYLINDRICAL_SURFACE('',#247,2.);
#29=CYLINDRICAL_SURFACE('',#248,5.075);
#30=CYLINDRICAL_SURFACE('',#249,1.6);
#31=CYLINDRICAL_SURFACE('',#251,8.07499999999999);
#32=FACE_OUTER_BOUND('',#44,.T.);
#33=FACE_OUTER_BOUND('',#45,.T.);
#34=FACE_OUTER_BOUND('',#46,.T.);
#35=FACE_OUTER_BOUND('',#50,.T.);
#36=FACE_OUTER_BOUND('',#51,.T.);
#37=FACE_OUTER_BOUND('',#52,.T.);
#38=FACE_OUTER_BOUND('',#56,.T.);
#39=FACE_OUTER_BOUND('',#57,.T.);
#40=FACE_OUTER_BOUND('',#58,.T.);
#41=FACE_OUTER_BOUND('',#59,.T.);
#42=FACE_OUTER_BOUND('',#60,.T.);
#43=FACE_OUTER_BOUND('',#61,.T.);
#44=EDGE_LOOP('',(#155,#156,#157,#158));
#45=EDGE_LOOP('',(#159,#160,#161,#162));
#46=EDGE_LOOP('',(#163,#164,#165,#166,#167,#168));
#47=EDGE_LOOP('',(#169));
#48=EDGE_LOOP('',(#170));
#49=EDGE_LOOP('',(#171));
#50=EDGE_LOOP('',(#172,#173,#174,#175));
#51=EDGE_LOOP('',(#176,#177,#178,#179));
#52=EDGE_LOOP('',(#180,#181,#182,#183,#184,#185));
#53=EDGE_LOOP('',(#186));
#54=EDGE_LOOP('',(#187));
#55=EDGE_LOOP('',(#188));
#56=EDGE_LOOP('',(#189,#190,#191,#192));
#57=EDGE_LOOP('',(#193,#194,#195,#196));
#58=EDGE_LOOP('',(#197,#198,#199,#200));
#59=EDGE_LOOP('',(#201,#202,#203,#204));
#60=EDGE_LOOP('',(#205,#206,#207,#208));
#61=EDGE_LOOP('',(#209,#210,#211,#212));
#62=LINE('',#326,#78);
#63=LINE('',#330,#79);
#64=LINE('',#337,#80);
#65=LINE('',#341,#81);
#66=LINE('',#344,#82);
#67=LINE('',#351,#83);
#68=LINE('',#354,#84);
#69=LINE('',#357,#85);
#70=LINE('',#358,#86);
#71=LINE('',#363,#87);
#72=LINE('',#366,#88);
#73=LINE('',#372,#89);
#74=LINE('',#374,#90);
#75=LINE('',#376,#91);
#76=LINE('',#378,#92);
#77=LINE('',#380,#93);
#78=VECTOR('',#259,2.45);
#79=VECTOR('',#264,1.6);
#80=VECTOR('',#271,10.);
#81=VECTOR('',#274,10.);
#82=VECTOR('',#277,10.);
#83=VECTOR('',#284,10.);
#84=VECTOR('',#287,10.);
#85=VECTOR('',#290,10.);
#86=VECTOR('',#291,10.);
#87=VECTOR('',#296,10.);
#88=VECTOR('',#299,10.);
#89=VECTOR('',#306,10.);
#90=VECTOR('',#309,5.075);
#91=VECTOR('',#312,1.6);
#92=VECTOR('',#315,10.);
#93=VECTOR('',#318,10.);
#94=CIRCLE('',#229,1.6);
#95=CIRCLE('',#230,3.3);
#96=CIRCLE('',#232,1.6);
#97=CIRCLE('',#234,2.);
#98=CIRCLE('',#235,8.07499999999999);
#99=CIRCLE('',#236,2.);
#100=CIRCLE('',#237,5.075);
#101=CIRCLE('',#238,1.6);
#102=CIRCLE('',#240,2.);
#103=CIRCLE('',#243,2.);
#104=CIRCLE('',#244,8.07499999999999);
#105=CIRCLE('',#245,1.6);
#106=CIRCLE('',#246,5.075);
#107=VERTEX_POINT('',#323);
#108=VERTEX_POINT('',#325);
#109=VERTEX_POINT('',#329);
#110=VERTEX_POINT('',#333);
#111=VERTEX_POINT('',#334);
#112=VERTEX_POINT('',#336);
#113=VERTEX_POINT('',#338);
#114=VERTEX_POINT('',#340);
#115=VERTEX_POINT('',#342);
#116=VERTEX_POINT('',#345);
#117=VERTEX_POINT('',#347);
#118=VERTEX_POINT('',#350);
#119=VERTEX_POINT('',#352);
#120=VERTEX_POINT('',#356);
#121=VERTEX_POINT('',#360);
#122=VERTEX_POINT('',#362);
#123=VERTEX_POINT('',#364);
#124=VERTEX_POINT('',#367);
#125=VERTEX_POINT('',#369);
#126=EDGE_CURVE('',#107,#107,#94,.T.);
#127=EDGE_CURVE('',#107,#108,#62,.T.);
#128=EDGE_CURVE('',#108,#108,#95,.T.);
#129=EDGE_CURVE('',#107,#109,#63,.T.);
#130=EDGE_CURVE('',#109,#109,#96,.T.);
#131=EDGE_CURVE('',#110,#111,#97,.T.);
#132=EDGE_CURVE('',#112,#111,#64,.T.);
#133=EDGE_CURVE('',#113,#112,#98,.T.);
#134=EDGE_CURVE('',#114,#113,#65,.T.);
#135=EDGE_CURVE('',#114,#115,#99,.T.);
#136=EDGE_CURVE('',#110,#115,#66,.T.);
#137=EDGE_CURVE('',#116,#116,#100,.T.);
#138=EDGE_CURVE('',#117,#117,#101,.T.);
#139=EDGE_CURVE('',#118,#110,#67,.T.);
#140=EDGE_CURVE('',#119,#118,#102,.T.);
#141=EDGE_CURVE('',#111,#119,#68,.T.);
#142=EDGE_CURVE('',#115,#120,#69,.T.);
#143=EDGE_CURVE('',#120,#118,#70,.T.);
#144=EDGE_CURVE('',#120,#121,#103,.T.);
#145=EDGE_CURVE('',#121,#122,#71,.T.);
#146=EDGE_CURVE('',#123,#122,#104,.T.);
#147=EDGE_CURVE('',#119,#123,#72,.T.);
#148=EDGE_CURVE('',#124,#124,#105,.T.);
#149=EDGE_CURVE('',#125,#125,#106,.T.);
#150=EDGE_CURVE('',#121,#114,#73,.T.);
#151=EDGE_CURVE('',#116,#125,#74,.T.);
#152=EDGE_CURVE('',#117,#124,#75,.T.);
#153=EDGE_CURVE('',#123,#112,#76,.T.);
#154=EDGE_CURVE('',#122,#113,#77,.T.);
#155=ORIENTED_EDGE('',*,*,#126,.T.);
#156=ORIENTED_EDGE('',*,*,#127,.T.);
#157=ORIENTED_EDGE('',*,*,#128,.T.);
#158=ORIENTED_EDGE('',*,*,#127,.F.);
#159=ORIENTED_EDGE('',*,*,#126,.F.);
#160=ORIENTED_EDGE('',*,*,#129,.T.);
#161=ORIENTED_EDGE('',*,*,#130,.T.);
#162=ORIENTED_EDGE('',*,*,#129,.F.);
#163=ORIENTED_EDGE('',*,*,#131,.T.);
#164=ORIENTED_EDGE('',*,*,#132,.F.);
#165=ORIENTED_EDGE('',*,*,#133,.F.);
#166=ORIENTED_EDGE('',*,*,#134,.F.);
#167=ORIENTED_EDGE('',*,*,#135,.T.);
#168=ORIENTED_EDGE('',*,*,#136,.F.);
#169=ORIENTED_EDGE('',*,*,#137,.F.);
#170=ORIENTED_EDGE('',*,*,#138,.F.);
#171=ORIENTED_EDGE('',*,*,#128,.F.);
#172=ORIENTED_EDGE('',*,*,#131,.F.);
#173=ORIENTED_EDGE('',*,*,#139,.F.);
#174=ORIENTED_EDGE('',*,*,#140,.F.);
#175=ORIENTED_EDGE('',*,*,#141,.F.);
#176=ORIENTED_EDGE('',*,*,#139,.T.);
#177=ORIENTED_EDGE('',*,*,#136,.T.);
#178=ORIENTED_EDGE('',*,*,#142,.T.);
#179=ORIENTED_EDGE('',*,*,#143,.T.);
#180=ORIENTED_EDGE('',*,*,#140,.T.);
#181=ORIENTED_EDGE('',*,*,#143,.F.);
#182=ORIENTED_EDGE('',*,*,#144,.T.);
#183=ORIENTED_EDGE('',*,*,#145,.T.);
#184=ORIENTED_EDGE('',*,*,#146,.F.);
#185=ORIENTED_EDGE('',*,*,#147,.F.);
#186=ORIENTED_EDGE('',*,*,#130,.F.);
#187=ORIENTED_EDGE('',*,*,#148,.F.);
#188=ORIENTED_EDGE('',*,*,#149,.F.);
#189=ORIENTED_EDGE('',*,*,#135,.F.);
#190=ORIENTED_EDGE('',*,*,#150,.F.);
#191=ORIENTED_EDGE('',*,*,#144,.F.);
#192=ORIENTED_EDGE('',*,*,#142,.F.);
#193=ORIENTED_EDGE('',*,*,#137,.T.);
#194=ORIENTED_EDGE('',*,*,#151,.T.);
#195=ORIENTED_EDGE('',*,*,#149,.T.);
#196=ORIENTED_EDGE('',*,*,#151,.F.);
#197=ORIENTED_EDGE('',*,*,#138,.T.);
#198=ORIENTED_EDGE('',*,*,#152,.T.);
#199=ORIENTED_EDGE('',*,*,#148,.T.);
#200=ORIENTED_EDGE('',*,*,#152,.F.);
#201=ORIENTED_EDGE('',*,*,#141,.T.);
#202=ORIENTED_EDGE('',*,*,#147,.T.);
#203=ORIENTED_EDGE('',*,*,#153,.T.);
#204=ORIENTED_EDGE('',*,*,#132,.T.);
#205=ORIENTED_EDGE('',*,*,#146,.T.);
#206=ORIENTED_EDGE('',*,*,#154,.T.);
#207=ORIENTED_EDGE('',*,*,#133,.T.);
#208=ORIENTED_EDGE('',*,*,#153,.F.);
#209=ORIENTED_EDGE('',*,*,#150,.T.);
#210=ORIENTED_EDGE('',*,*,#134,.T.);
#211=ORIENTED_EDGE('',*,*,#154,.F.);
#212=ORIENTED_EDGE('',*,*,#145,.F.);
#213=CONICAL_SURFACE('',#228,2.45,0.785398163397448);
#214=ADVANCED_FACE('',(#32),#213,.F.);
#215=ADVANCED_FACE('',(#33),#26,.F.);
#216=ADVANCED_FACE('',(#34,#15,#16,#17),#21,.T.);
#217=ADVANCED_FACE('',(#35),#27,.T.);
#218=ADVANCED_FACE('',(#36),#22,.F.);
#219=ADVANCED_FACE('',(#37,#18,#19,#20),#23,.F.);
#220=ADVANCED_FACE('',(#38),#28,.T.);
#221=ADVANCED_FACE('',(#39),#29,.F.);
#222=ADVANCED_FACE('',(#40),#30,.F.);
#223=ADVANCED_FACE('',(#41),#24,.F.);
#224=ADVANCED_FACE('',(#42),#31,.T.);
#225=ADVANCED_FACE('',(#43),#25,.F.);
#226=CLOSED_SHELL('',(#214,#215,#216,#217,#218,#219,#220,#221,#222,#223,
#224,#225));
#227=AXIS2_PLACEMENT_3D('',#321,#253,#254);
#228=AXIS2_PLACEMENT_3D('',#322,#255,#256);
#229=AXIS2_PLACEMENT_3D('',#324,#257,#258);
#230=AXIS2_PLACEMENT_3D('',#327,#260,#261);
#231=AXIS2_PLACEMENT_3D('',#328,#262,#263);
#232=AXIS2_PLACEMENT_3D('',#331,#265,#266);
#233=AXIS2_PLACEMENT_3D('',#332,#267,#268);
#234=AXIS2_PLACEMENT_3D('',#335,#269,#270);
#235=AXIS2_PLACEMENT_3D('',#339,#272,#273);
#236=AXIS2_PLACEMENT_3D('',#343,#275,#276);
#237=AXIS2_PLACEMENT_3D('',#346,#278,#279);
#238=AXIS2_PLACEMENT_3D('',#348,#280,#281);
#239=AXIS2_PLACEMENT_3D('',#349,#282,#283);
#240=AXIS2_PLACEMENT_3D('',#353,#285,#286);
#241=AXIS2_PLACEMENT_3D('',#355,#288,#289);
#242=AXIS2_PLACEMENT_3D('',#359,#292,#293);
#243=AXIS2_PLACEMENT_3D('',#361,#294,#295);
#244=AXIS2_PLACEMENT_3D('',#365,#297,#298);
#245=AXIS2_PLACEMENT_3D('',#368,#300,#301);
#246=AXIS2_PLACEMENT_3D('',#370,#302,#303);
#247=AXIS2_PLACEMENT_3D('',#371,#304,#305);
#248=AXIS2_PLACEMENT_3D('',#373,#307,#308);
#249=AXIS2_PLACEMENT_3D('',#375,#310,#311);
#250=AXIS2_PLACEMENT_3D('',#377,#313,#314);
#251=AXIS2_PLACEMENT_3D('',#379,#316,#317);
#252=AXIS2_PLACEMENT_3D('',#381,#319,#320);
#253=DIRECTION('axis',(0.,0.,1.));
#254=DIRECTION('refdir',(1.,0.,0.));
#255=DIRECTION('center_axis',(0.,0.,1.));
#256=DIRECTION('ref_axis',(1.,0.,0.));
#257=DIRECTION('center_axis',(0.,0.,-1.));
#258=DIRECTION('ref_axis',(1.,0.,0.));
#259=DIRECTION('',(-0.707106781186548,8.65956056235493E-17,0.707106781186548));
#260=DIRECTION('center_axis',(0.,0.,1.));
#261=DIRECTION('ref_axis',(1.,0.,0.));
#262=DIRECTION('center_axis',(0.,0.,-1.));
#263=DIRECTION('ref_axis',(1.,0.,0.));
#264=DIRECTION('',(0.,0.,-1.));
#265=DIRECTION('center_axis',(0.,0.,-1.));
#266=DIRECTION('ref_axis',(1.,0.,0.));
#267=DIRECTION('center_axis',(0.,0.,1.));
#268=DIRECTION('ref_axis',(1.,0.,0.));
#269=DIRECTION('center_axis',(0.,0.,1.));
#270=DIRECTION('ref_axis',(0.836008752313303,-0.548716106976599,0.));
#271=DIRECTION('',(0.397821267888891,-0.917462935935439,0.));
#272=DIRECTION('center_axis',(0.,0.,-1.));
#273=DIRECTION('ref_axis',(1.,0.,0.));
#274=DIRECTION('',(0.397821267888891,0.917462935935439,0.));
#275=DIRECTION('center_axis',(0.,0.,1.));
#276=DIRECTION('ref_axis',(-0.836008752313308,-0.548716106976592,0.));
#277=DIRECTION('',(-1.,-8.00160738468582E-16,0.));
#278=DIRECTION('center_axis',(0.,0.,1.));
#279=DIRECTION('ref_axis',(1.,0.,0.));
#280=DIRECTION('center_axis',(0.,0.,1.));
#281=DIRECTION('ref_axis',(1.,0.,0.));
#282=DIRECTION('center_axis',(0.,0.,-1.));
#283=DIRECTION('ref_axis',(0.836008752313303,-0.548716106976599,0.));
#284=DIRECTION('',(0.,0.,1.));
#285=DIRECTION('center_axis',(0.,0.,-1.));
#286=DIRECTION('ref_axis',(0.836008752313303,-0.548716106976599,0.));
#287=DIRECTION('',(0.,0.,-1.));
#288=DIRECTION('center_axis',(-8.00160738468582E-16,1.,0.));
#289=DIRECTION('ref_axis',(-1.,-8.00160738468582E-16,0.));
#290=DIRECTION('',(0.,0.,-1.));
#291=DIRECTION('',(1.,8.00160738468582E-16,0.));
#292=DIRECTION('center_axis',(0.,0.,1.));
#293=DIRECTION('ref_axis',(1.,0.,0.));
#294=DIRECTION('center_axis',(0.,0.,-1.));
#295=DIRECTION('ref_axis',(-0.836008752313308,-0.548716106976592,0.));
#296=DIRECTION('',(0.397821267888891,0.917462935935439,0.));
#297=DIRECTION('center_axis',(0.,0.,1.));
#298=DIRECTION('ref_axis',(1.,0.,0.));
#299=DIRECTION('',(-0.397821267888891,0.917462935935439,0.));
#300=DIRECTION('center_axis',(0.,0.,-1.));
#301=DIRECTION('ref_axis',(1.,0.,0.));
#302=DIRECTION('center_axis',(0.,0.,-1.));
#303=DIRECTION('ref_axis',(1.,0.,0.));
#304=DIRECTION('center_axis',(0.,0.,-1.));
#305=DIRECTION('ref_axis',(-0.836008752313308,-0.548716106976592,0.));
#306=DIRECTION('',(0.,0.,1.));
#307=DIRECTION('center_axis',(0.,0.,-1.));
#308=DIRECTION('ref_axis',(1.,0.,0.));
#309=DIRECTION('',(0.,0.,-1.));
#310=DIRECTION('center_axis',(0.,0.,-1.));
#311=DIRECTION('ref_axis',(1.,0.,0.));
#312=DIRECTION('',(0.,0.,-1.));
#313=DIRECTION('center_axis',(-0.917462935935439,-0.397821267888891,0.));
#314=DIRECTION('ref_axis',(0.397821267888891,-0.917462935935439,0.));
#315=DIRECTION('',(0.,0.,1.));
#316=DIRECTION('center_axis',(0.,0.,-1.));
#317=DIRECTION('ref_axis',(1.,0.,0.));
#318=DIRECTION('',(0.,0.,1.));
#319=DIRECTION('center_axis',(0.917462935935439,-0.397821267888891,0.));
#320=DIRECTION('ref_axis',(0.397821267888891,0.917462935935439,0.));
#321=CARTESIAN_POINT('',(0.,0.,0.));
#322=CARTESIAN_POINT('Origin',(78.5303490757657,-78.5019102708,-37.85));
#323=CARTESIAN_POINT('',(76.9303490757657,-78.5019102708,-38.7));
#324=CARTESIAN_POINT('Origin',(78.5303490757657,-78.5019102708,-38.7));
#325=CARTESIAN_POINT('',(75.2303490757657,-78.5019102708,-37.));
#326=CARTESIAN_POINT('',(76.0803490757658,-78.5019102708,-37.85));
#327=CARTESIAN_POINT('Origin',(78.5303490757657,-78.5019102708,-37.));
#328=CARTESIAN_POINT('Origin',(78.5303490757657,-78.5019102708,-40.));
#329=CARTESIAN_POINT('',(76.9303490757657,-78.5019102708,-40.));
#330=CARTESIAN_POINT('',(76.9303490757657,-78.5019102708,-40.));
#331=CARTESIAN_POINT('Origin',(78.5303490757657,-78.5019102708,-40.));
#332=CARTESIAN_POINT('Origin',(93.5622981807,-64.0144102708,-37.));
#333=CARTESIAN_POINT('',(112.715153248434,-83.5019102708,-37.));
#334=CARTESIAN_POINT('',(114.550079120305,-80.7062677350222,-37.));
#335=CARTESIAN_POINT('Origin',(112.715153248434,-81.5019102708,-37.));
#336=CARTESIAN_POINT('',(100.970811388379,-49.3895035325972,-37.));
#337=CARTESIAN_POINT('',(115.7622981807,-83.5019102708,-37.));
#338=CARTESIAN_POINT('',(86.1537849730213,-49.3895035325972,-37.));
#339=CARTESIAN_POINT('Origin',(93.5622981807,-52.6019102708,-37.));
#340=CARTESIAN_POINT('',(72.5745172410954,-80.7062677350223,-37.));
#341=CARTESIAN_POINT('',(71.3622981807,-83.5019102708,-37.));
#342=CARTESIAN_POINT('',(74.4094431129663,-83.5019102708,-37.));
#343=CARTESIAN_POINT('Origin',(74.4094431129663,-81.5019102708,-37.));
#344=CARTESIAN_POINT('',(71.3622981807,-83.5019102708,-37.));
#345=CARTESIAN_POINT('',(88.4872981807,-52.6019102708,-37.));
#346=CARTESIAN_POINT('Origin',(93.5622981807,-52.6019102708,-37.));
#347=CARTESIAN_POINT('',(106.994247285634,-78.5019102708,-37.));
#348=CARTESIAN_POINT('Origin',(108.594247285634,-78.5019102708,-37.));
#349=CARTESIAN_POINT('Origin',(112.715153248434,-81.5019102708,-40.));
#350=CARTESIAN_POINT('',(112.715153248434,-83.5019102708,-40.));
#351=CARTESIAN_POINT('',(112.715153248434,-83.5019102708,-40.));
#352=CARTESIAN_POINT('',(114.550079120305,-80.7062677350222,-40.));
#353=CARTESIAN_POINT('Origin',(112.715153248434,-81.5019102708,-40.));
#354=CARTESIAN_POINT('',(114.550079120305,-80.7062677350222,-40.));
#355=CARTESIAN_POINT('Origin',(115.7622981807,-83.5019102708,-40.));
#356=CARTESIAN_POINT('',(74.4094431129663,-83.5019102708,-40.));
#357=CARTESIAN_POINT('',(74.4094431129663,-83.5019102708,-40.));
#358=CARTESIAN_POINT('',(71.3622981807,-83.5019102708,-40.));
#359=CARTESIAN_POINT('Origin',(93.5622981807,-64.0144102708,-40.));
#360=CARTESIAN_POINT('',(72.5745172410954,-80.7062677350223,-40.));
#361=CARTESIAN_POINT('Origin',(74.4094431129663,-81.5019102708,-40.));
#362=CARTESIAN_POINT('',(86.1537849730213,-49.3895035325972,-40.));
#363=CARTESIAN_POINT('',(71.3622981807,-83.5019102708,-40.));
#364=CARTESIAN_POINT('',(100.970811388379,-49.3895035325972,-40.));
#365=CARTESIAN_POINT('Origin',(93.5622981807,-52.6019102708,-40.));
#366=CARTESIAN_POINT('',(115.7622981807,-83.5019102708,-40.));
#367=CARTESIAN_POINT('',(106.994247285634,-78.5019102708,-40.));
#368=CARTESIAN_POINT('Origin',(108.594247285634,-78.5019102708,-40.));
#369=CARTESIAN_POINT('',(88.4872981807,-52.6019102708,-40.));
#370=CARTESIAN_POINT('Origin',(93.5622981807,-52.6019102708,-40.));
#371=CARTESIAN_POINT('Origin',(74.4094431129663,-81.5019102708,-40.));
#372=CARTESIAN_POINT('',(72.5745172410954,-80.7062677350223,-40.));
#373=CARTESIAN_POINT('Origin',(93.5622981807,-52.6019102708,-40.));
#374=CARTESIAN_POINT('',(88.4872981807,-52.6019102708,-40.));
#375=CARTESIAN_POINT('Origin',(108.594247285634,-78.5019102708,-40.));
#376=CARTESIAN_POINT('',(106.994247285634,-78.5019102708,-40.));
#377=CARTESIAN_POINT('Origin',(100.970811388379,-49.3895035325972,-40.));
#378=CARTESIAN_POINT('',(100.970811388379,-49.3895035325972,-40.));
#379=CARTESIAN_POINT('Origin',(93.5622981807,-52.6019102708,-40.));
#380=CARTESIAN_POINT('',(86.1537849730213,-49.3895035325972,-40.));
#381=CARTESIAN_POINT('Origin',(71.3622981807,-83.5019102708,-40.));
#382=UNCERTAINTY_MEASURE_WITH_UNIT(LENGTH_MEASURE(0.01),#386,
'DISTANCE_ACCURACY_VALUE',
'Maximum model space distance between geometric entities at asserted c
onnectivities');
#383=UNCERTAINTY_MEASURE_WITH_UNIT(LENGTH_MEASURE(0.01),#386,
'DISTANCE_ACCURACY_VALUE',
'Maximum model space distance between geometric entities at asserted c
onnectivities');
#384=(
GEOMETRIC_REPRESENTATION_CONTEXT(3)
GLOBAL_UNCERTAINTY_ASSIGNED_CONTEXT((#382))
GLOBAL_UNIT_ASSIGNED_CONTEXT((#386,#387,#388))
REPRESENTATION_CONTEXT('','3D')
);
#385=(
GEOMETRIC_REPRESENTATION_CONTEXT(3)
GLOBAL_UNCERTAINTY_ASSIGNED_CONTEXT((#383))
GLOBAL_UNIT_ASSIGNED_CONTEXT((#386,#387,#388))
REPRESENTATION_CONTEXT('','3D')
);
#386=(
LENGTH_UNIT()
NAMED_UNIT(*)
SI_UNIT(.MILLI.,.METRE.)
);
#387=(
NAMED_UNIT(*)
PLANE_ANGLE_UNIT()
SI_UNIT($,.RADIAN.)
);
#388=(
NAMED_UNIT(*)
SI_UNIT($,.STERADIAN.)
SOLID_ANGLE_UNIT()
);
#389=SHAPE_DEFINITION_REPRESENTATION(#390,#391);
#390=PRODUCT_DEFINITION_SHAPE('',$,#393);
#391=SHAPE_REPRESENTATION('',(#227),#384);
#392=PRODUCT_DEFINITION_CONTEXT('part definition',#397,'design');
#393=PRODUCT_DEFINITION('Throttle Damper Mount',
'Throttle Damper Mount v11',#394,#392);
#394=PRODUCT_DEFINITION_FORMATION('',$,#399);
#395=PRODUCT_RELATED_PRODUCT_CATEGORY('Throttle Damper Mount v11',
'Throttle Damper Mount v11',(#399));
#396=APPLICATION_PROTOCOL_DEFINITION('international standard',
'automotive_design',2009,#397);
#397=APPLICATION_CONTEXT(
'Core Data for Automotive Mechanical Design Process');
#398=PRODUCT_CONTEXT('part definition',#397,'mechanical');
#399=PRODUCT('Throttle Damper Mount','Throttle Damper Mount v11',$,(#398));
#400=PRESENTATION_STYLE_ASSIGNMENT((#403));
#401=PRESENTATION_STYLE_ASSIGNMENT((#404));
#402=PRESENTATION_STYLE_ASSIGNMENT((#405));
#403=SURFACE_STYLE_USAGE(.BOTH.,#406);
#404=SURFACE_STYLE_USAGE(.BOTH.,#407);
#405=SURFACE_STYLE_USAGE(.BOTH.,#408);
#406=SURFACE_SIDE_STYLE('',(#409));
#407=SURFACE_SIDE_STYLE('',(#410));
#408=SURFACE_SIDE_STYLE('',(#411));
#409=SURFACE_STYLE_FILL_AREA(#412);
#410=SURFACE_STYLE_FILL_AREA(#413);
#411=SURFACE_STYLE_FILL_AREA(#414);
#412=FILL_AREA_STYLE('Steel - Satin',(#415));
#413=FILL_AREA_STYLE('Powder Coat (Black)',(#416));
#414=FILL_AREA_STYLE('Aluminum - Satin',(#417));
#415=FILL_AREA_STYLE_COLOUR('Steel - Satin',#418);
#416=FILL_AREA_STYLE_COLOUR('Powder Coat (Black)',#419);
#417=FILL_AREA_STYLE_COLOUR('Aluminum - Satin',#420);
#418=COLOUR_RGB('Steel - Satin',0.627450980392157,0.627450980392157,0.627450980392157);
#419=COLOUR_RGB('Powder Coat (Black)',0.0980392156862745,0.0980392156862745,
0.0980392156862745);
#420=COLOUR_RGB('Aluminum - Satin',0.96078431372549,0.96078431372549,0.964705882352941);
ENDSEC;
END-ISO-10303-21;
