ISO-10303-21;
HEADER;
FILE_DESCRIPTION(('STEP AP214'),'1');
FILE_NAME('entretoise 20mm.stp','2023-12-17T17:27:00',(' '),(' '),'Spatial InterOp 3D',' ',' ');
FILE_SCHEMA(('AUTOMOTIVE_DESIGN { 1 0 10303 214 1 1 1 1 }'));
ENDSEC;
DATA;
#1=MECHANICAL_DESIGN_GEOMETRIC_PRESENTATION_REPRESENTATION(' ',(#10,#11,#12,#13,#14,#15,#16,#17,#18,#19),#6);
#2=PRODUCT_DEFINITION_CONTEXT('',#20,'design');
#3=APPLICATION_PROTOCOL_DEFINITION('INTERNATIONAL STANDARD','automotive_design',1994,#20);
#4=PRODUCT_CATEGORY_RELATIONSHIP('NONE','NONE',#21,#22);
#5=SHAPE_DEFINITION_REPRESENTATION(#23,#24);
#6= (GEOMETRIC_REPRESENTATION_CONTEXT(3)GLOBAL_UNCERTAINTY_ASSIGNED_CONTEXT((#27))GLOBAL_UNIT_ASSIGNED_CONTEXT((#29,#30,#31))REPRESENTATION_CONTEXT('NONE','WORKSPACE'));
#10=STYLED_ITEM('',(#33),#34);
#11=STYLED_ITEM('',(#35),#36);
#12=STYLED_ITEM('',(#37),#38);
#13=STYLED_ITEM('',(#39),#40);
#14=STYLED_ITEM('',(#41),#42);
#15=STYLED_ITEM('',(#43),#44);
#16=STYLED_ITEM('',(#45),#46);
#17=STYLED_ITEM('',(#47),#48);
#18=STYLED_ITEM('',(#49),#50);
#19=STYLED_ITEM('',(#51),#52);
#20=APPLICATION_CONTEXT(' ');
#21=PRODUCT_CATEGORY('part','NONE');
#22=PRODUCT_RELATED_PRODUCT_CATEGORY('detail',' ',(#53));
#23=PRODUCT_DEFINITION_SHAPE('NONE','NONE',#54);
#24=ADVANCED_BREP_SHAPE_REPRESENTATION('Corps',(#52,#55),#6);
#27=UNCERTAINTY_MEASURE_WITH_UNIT(LENGTH_MEASURE(1.0E-08),#29,'','');
#29= (CONVERSION_BASED_UNIT('METRE',#58)LENGTH_UNIT()NAMED_UNIT(#61));
#30= (NAMED_UNIT(#63)PLANE_ANGLE_UNIT()SI_UNIT($,.RADIAN.));
#31= (NAMED_UNIT(#63)SOLID_ANGLE_UNIT()SI_UNIT($,.STERADIAN.));
#33=PRESENTATION_STYLE_ASSIGNMENT((#69));
#34=ADVANCED_FACE('0:87',(#70),#71,.T.);
#35=PRESENTATION_STYLE_ASSIGNMENT((#72));
#36=ADVANCED_FACE('0:689',(#73),#74,.F.);
#37=PRESENTATION_STYLE_ASSIGNMENT((#75));
#38=ADVANCED_FACE('0:419',(#76),#77,.F.);
#39=PRESENTATION_STYLE_ASSIGNMENT((#78));
#40=ADVANCED_FACE('0:669',(#79,#80),#81,.F.);
#41=PRESENTATION_STYLE_ASSIGNMENT((#82));
#42=ADVANCED_FACE('0:93',(#83,#84),#85,.T.);
#43=PRESENTATION_STYLE_ASSIGNMENT((#86));
#44=ADVANCED_FACE('0:419',(#87),#88,.F.);
#45=PRESENTATION_STYLE_ASSIGNMENT((#89));
#46=ADVANCED_FACE('0:689',(#90),#91,.F.);
#47=PRESENTATION_STYLE_ASSIGNMENT((#92));
#48=ADVANCED_FACE('0:672',(#93,#94),#95,.F.);
#49=PRESENTATION_STYLE_ASSIGNMENT((#96));
#50=ADVANCED_FACE('0:87',(#97),#98,.T.);
#51=PRESENTATION_STYLE_ASSIGNMENT((#99));
#52=MANIFOLD_SOLID_BREP('Corps',#100);
#53=PRODUCT('Corps','','PART--DESC',(#101));
#54=PRODUCT_DEFINITION('','NONE',#102,#2);
#55=AXIS2_PLACEMENT_3D('',#103,#104,#105);
#58=LENGTH_MEASURE_WITH_UNIT(LENGTH_MEASURE(1.0),#106);
#61=DIMENSIONAL_EXPONENTS(1.0,0.0,0.0,0.0,0.0,0.0,0.0);
#63=DIMENSIONAL_EXPONENTS(0.0,0.0,0.0,0.0,0.0,0.0,0.0);
#69=SURFACE_STYLE_USAGE(.BOTH.,#107);
#70=FACE_OUTER_BOUND('',#108,.T.);
#71=CYLINDRICAL_SURFACE('',#109,0.01);
#72=SURFACE_STYLE_USAGE(.BOTH.,#110);
#73=FACE_OUTER_BOUND('',#111,.T.);
#74=CYLINDRICAL_SURFACE('',#112,0.0055);
#75=SURFACE_STYLE_USAGE(.BOTH.,#113);
#76=FACE_OUTER_BOUND('',#114,.T.);
#77=CYLINDRICAL_SURFACE('',#115,0.0035);
#78=SURFACE_STYLE_USAGE(.BOTH.,#116);
#79=FACE_BOUND('',#117,.T.);
#80=FACE_OUTER_BOUND('',#118,.T.);
#81=PLANE('',#119);
#82=SURFACE_STYLE_USAGE(.BOTH.,#120);
#83=FACE_BOUND('',#121,.T.);
#84=FACE_OUTER_BOUND('',#122,.T.);
#85=PLANE('',#123);
#86=SURFACE_STYLE_USAGE(.BOTH.,#124);
#87=FACE_OUTER_BOUND('',#125,.T.);
#88=CYLINDRICAL_SURFACE('',#126,0.0035);
#89=SURFACE_STYLE_USAGE(.BOTH.,#127);
#90=FACE_OUTER_BOUND('',#128,.T.);
#91=CYLINDRICAL_SURFACE('',#129,0.0055);
#92=SURFACE_STYLE_USAGE(.BOTH.,#130);
#93=FACE_BOUND('',#131,.T.);
#94=FACE_OUTER_BOUND('',#132,.T.);
#95=PLANE('',#133);
#96=SURFACE_STYLE_USAGE(.BOTH.,#134);
#97=FACE_OUTER_BOUND('',#135,.T.);
#98=CYLINDRICAL_SURFACE('',#136,0.01);
#99=SURFACE_STYLE_USAGE(.BOTH.,#137);
#100=CLOSED_SHELL('',(#34,#36,#38,#40,#42,#44,#46,#48,#50));
#101=PRODUCT_CONTEXT('',#20,'mechanical');
#102=PRODUCT_DEFINITION_FORMATION_WITH_SPECIFIED_SOURCE(' ','NONE',#53,.NOT_KNOWN.);
#103=CARTESIAN_POINT('',(0.0,0.0,0.0));
#104=DIRECTION('',(0.0,0.0,1.0));
#105=DIRECTION('',(1.0,0.0,0.0));
#106= (NAMED_UNIT(#61)LENGTH_UNIT()SI_UNIT($,.METRE.));
#107=SURFACE_SIDE_STYLE('',(#139));
#108=EDGE_LOOP('',(#140,#141,#142,#143));
#109=AXIS2_PLACEMENT_3D('',#144,#145,#146);
#110=SURFACE_SIDE_STYLE('',(#147));
#111=EDGE_LOOP('',(#148,#149,#150,#151));
#112=AXIS2_PLACEMENT_3D('',#152,#153,#154);
#113=SURFACE_SIDE_STYLE('',(#155));
#114=EDGE_LOOP('',(#156,#157,#158,#159));
#115=AXIS2_PLACEMENT_3D('',#160,#161,#162);
#116=SURFACE_SIDE_STYLE('',(#163));
#117=EDGE_LOOP('',(#164,#165));
#118=EDGE_LOOP('',(#166,#167));
#119=AXIS2_PLACEMENT_3D('',#168,#169,#170);
#120=SURFACE_SIDE_STYLE('',(#171));
#121=EDGE_LOOP('',(#172,#173));
#122=EDGE_LOOP('',(#174,#175));
#123=AXIS2_PLACEMENT_3D('',#176,#177,#178);
#124=SURFACE_SIDE_STYLE('',(#179));
#125=EDGE_LOOP('',(#180,#181,#182,#183));
#126=AXIS2_PLACEMENT_3D('',#184,#185,#186);
#127=SURFACE_SIDE_STYLE('',(#187));
#128=EDGE_LOOP('',(#188,#189,#190,#191));
#129=AXIS2_PLACEMENT_3D('',#192,#193,#194);
#130=SURFACE_SIDE_STYLE('',(#195));
#131=EDGE_LOOP('',(#196,#197));
#132=EDGE_LOOP('',(#198,#199));
#133=AXIS2_PLACEMENT_3D('',#200,#201,#202);
#134=SURFACE_SIDE_STYLE('',(#203));
#135=EDGE_LOOP('',(#204,#205,#206,#207));
#136=AXIS2_PLACEMENT_3D('',#208,#209,#210);
#137=SURFACE_SIDE_STYLE('',(#211));
#139=SURFACE_STYLE_FILL_AREA(#212);
#140=ORIENTED_EDGE('',*,*,#213,.F.);
#141=ORIENTED_EDGE('',*,*,#214,.T.);
#142=ORIENTED_EDGE('',*,*,#215,.F.);
#143=ORIENTED_EDGE('',*,*,#216,.T.);
#144=CARTESIAN_POINT('',(-2.08498058549833E-05,-7.78125347791203E-05,0.0));
#145=DIRECTION('',(0.0,0.0,1.0));
#146=DIRECTION('',(1.0,0.0,0.0));
#147=SURFACE_STYLE_FILL_AREA(#217);
#148=ORIENTED_EDGE('',*,*,#218,.F.);
#149=ORIENTED_EDGE('',*,*,#219,.F.);
#150=ORIENTED_EDGE('',*,*,#220,.F.);
#151=ORIENTED_EDGE('',*,*,#221,.T.);
#152=CARTESIAN_POINT('',(-2.08498058549833E-05,-7.78125347791203E-05,0.0));
#153=DIRECTION('',(0.0,0.0,-1.0));
#154=DIRECTION('',(-1.0,0.0,0.0));
#155=SURFACE_STYLE_FILL_AREA(#222);
#156=ORIENTED_EDGE('',*,*,#223,.F.);
#157=ORIENTED_EDGE('',*,*,#224,.T.);
#158=ORIENTED_EDGE('',*,*,#225,.F.);
#159=ORIENTED_EDGE('',*,*,#226,.T.);
#160=CARTESIAN_POINT('',(-2.08498058549833E-05,-7.78125347791203E-05,0.0));
#161=DIRECTION('',(0.0,0.0,1.0));
#162=DIRECTION('',(1.0,0.0,0.0));
#163=SURFACE_STYLE_FILL_AREA(#227);
#164=ORIENTED_EDGE('',*,*,#221,.F.);
#165=ORIENTED_EDGE('',*,*,#228,.F.);
#166=ORIENTED_EDGE('',*,*,#229,.F.);
#167=ORIENTED_EDGE('',*,*,#214,.F.);
#168=CARTESIAN_POINT('',(0.0,0.0,0.0));
#169=DIRECTION('',(0.0,0.0,1.0));
#170=DIRECTION('',(1.0,0.0,0.0));
#171=SURFACE_STYLE_FILL_AREA(#230);
#172=ORIENTED_EDGE('',*,*,#231,.F.);
#173=ORIENTED_EDGE('',*,*,#224,.F.);
#174=ORIENTED_EDGE('',*,*,#216,.F.);
#175=ORIENTED_EDGE('',*,*,#232,.F.);
#176=CARTESIAN_POINT('',(0.0,0.0,0.02));
#177=DIRECTION('',(0.0,0.0,1.0));
#178=DIRECTION('',(1.0,0.0,0.0));
#179=SURFACE_STYLE_FILL_AREA(#233);
#180=ORIENTED_EDGE('',*,*,#223,.T.);
#181=ORIENTED_EDGE('',*,*,#234,.T.);
#182=ORIENTED_EDGE('',*,*,#225,.T.);
#183=ORIENTED_EDGE('',*,*,#231,.T.);
#184=CARTESIAN_POINT('',(-2.08498058549833E-05,-7.78125347791203E-05,0.0));
#185=DIRECTION('',(0.0,0.0,1.0));
#186=DIRECTION('',(1.0,0.0,0.0));
#187=SURFACE_STYLE_FILL_AREA(#235);
#188=ORIENTED_EDGE('',*,*,#218,.T.);
#189=ORIENTED_EDGE('',*,*,#228,.T.);
#190=ORIENTED_EDGE('',*,*,#220,.T.);
#191=ORIENTED_EDGE('',*,*,#236,.F.);
#192=CARTESIAN_POINT('',(-2.08498058549833E-05,-7.78125347791203E-05,0.0));
#193=DIRECTION('',(0.0,0.0,-1.0));
#194=DIRECTION('',(-1.0,0.0,0.0));
#195=SURFACE_STYLE_FILL_AREA(#237);
#196=ORIENTED_EDGE('',*,*,#226,.F.);
#197=ORIENTED_EDGE('',*,*,#234,.F.);
#198=ORIENTED_EDGE('',*,*,#236,.T.);
#199=ORIENTED_EDGE('',*,*,#219,.T.);
#200=CARTESIAN_POINT('',(0.0,0.0,0.001));
#201=DIRECTION('',(0.0,0.0,1.0));
#202=DIRECTION('',(1.0,0.0,0.0));
#203=SURFACE_STYLE_FILL_AREA(#238);
#204=ORIENTED_EDGE('',*,*,#213,.T.);
#205=ORIENTED_EDGE('',*,*,#232,.T.);
#206=ORIENTED_EDGE('',*,*,#215,.T.);
#207=ORIENTED_EDGE('',*,*,#229,.T.);
#208=CARTESIAN_POINT('',(-2.08498058549833E-05,-7.78125347791203E-05,0.0));
#209=DIRECTION('',(0.0,0.0,1.0));
#210=DIRECTION('',(1.0,0.0,0.0));
#211=SURFACE_STYLE_FILL_AREA(#239);
#212=FILL_AREA_STYLE('',(#240));
#213=EDGE_CURVE('',#241,#242,#243,.T.);
#214=EDGE_CURVE('0:102',#241,#244,#245,.F.);
#215=EDGE_CURVE('',#246,#244,#247,.T.);
#216=EDGE_CURVE('0:99',#246,#242,#248,.T.);
#217=FILL_AREA_STYLE('',(#249));
#218=EDGE_CURVE('',#250,#251,#252,.T.);
#219=EDGE_CURVE('0:693',#253,#250,#254,.F.);
#220=EDGE_CURVE('',#255,#253,#256,.T.);
#221=EDGE_CURVE('0:696',#255,#251,#257,.T.);
#222=FILL_AREA_STYLE('',(#258));
#223=EDGE_CURVE('',#259,#260,#261,.T.);
#224=EDGE_CURVE('0:105',#259,#262,#263,.T.);
#225=EDGE_CURVE('',#264,#262,#265,.T.);
#226=EDGE_CURVE('0:639',#264,#260,#266,.F.);
#227=FILL_AREA_STYLE('',(#267));
#228=EDGE_CURVE('0:696',#251,#255,#268,.T.);
#229=EDGE_CURVE('0:102',#244,#241,#269,.F.);
#230=FILL_AREA_STYLE('',(#270));
#231=EDGE_CURVE('0:105',#262,#259,#271,.T.);
#232=EDGE_CURVE('0:99',#242,#246,#272,.T.);
#233=FILL_AREA_STYLE('',(#273));
#234=EDGE_CURVE('0:639',#260,#264,#274,.F.);
#235=FILL_AREA_STYLE('',(#275));
#236=EDGE_CURVE('0:693',#250,#253,#276,.F.);
#237=FILL_AREA_STYLE('',(#277));
#238=FILL_AREA_STYLE('',(#278));
#239=FILL_AREA_STYLE('',(#279));
#240=FILL_AREA_STYLE_COLOUR('',#280);
#241=VERTEX_POINT('',#281);
#242=VERTEX_POINT('',#282);
#243=LINE('',#283,#284);
#244=VERTEX_POINT('',#285);
#245=CIRCLE('',#286,0.01);
#246=VERTEX_POINT('',#287);
#247=LINE('',#288,#289);
#248=CIRCLE('',#290,0.01);
#249=FILL_AREA_STYLE_COLOUR('',#291);
#250=VERTEX_POINT('',#292);
#251=VERTEX_POINT('',#293);
#252=LINE('',#294,#295);
#253=VERTEX_POINT('',#296);
#254=CIRCLE('',#297,0.0055);
#255=VERTEX_POINT('',#298);
#256=LINE('',#299,#300);
#257=CIRCLE('',#301,0.0055);
#258=FILL_AREA_STYLE_COLOUR('',#302);
#259=VERTEX_POINT('',#303);
#260=VERTEX_POINT('',#304);
#261=LINE('',#305,#306);
#262=VERTEX_POINT('',#307);
#263=CIRCLE('',#308,0.0035);
#264=VERTEX_POINT('',#309);
#265=LINE('',#310,#311);
#266=CIRCLE('',#312,0.0035);
#267=FILL_AREA_STYLE_COLOUR('',#313);
#268=CIRCLE('',#314,0.0055);
#269=CIRCLE('',#315,0.01);
#270=FILL_AREA_STYLE_COLOUR('',#316);
#271=CIRCLE('',#317,0.0035);
#272=CIRCLE('',#318,0.01);
#273=FILL_AREA_STYLE_COLOUR('',#319);
#274=CIRCLE('',#320,0.0035);
#275=FILL_AREA_STYLE_COLOUR('',#321);
#276=CIRCLE('',#322,0.0055);
#277=FILL_AREA_STYLE_COLOUR('',#323);
#278=FILL_AREA_STYLE_COLOUR('',#324);
#279=FILL_AREA_STYLE_COLOUR('',#325);
#280=COLOUR_RGB('',0.560784339904785,0.686274528503418,0.560784339904785);
#281=CARTESIAN_POINT('',(0.00997915019414502,-7.78125347791215E-05,0.0));
#282=CARTESIAN_POINT('',(0.00997915019414502,-7.78125347791215E-05,0.02));
#283=CARTESIAN_POINT('',(0.00997915019414502,-7.78125347791215E-05,0.0));
#284=VECTOR('',#326,1.0);
#285=CARTESIAN_POINT('',(-0.010020849805855,-7.78125347791191E-05,0.0));
#286=AXIS2_PLACEMENT_3D('',#327,#328,#329);
#287=CARTESIAN_POINT('',(-0.010020849805855,-7.78125347791191E-05,0.02));
#288=CARTESIAN_POINT('',(-0.010020849805855,-7.78125347791191E-05,0.0));
#289=VECTOR('',#330,1.0);
#290=AXIS2_PLACEMENT_3D('',#331,#332,#333);
#291=COLOUR_RGB('',0.560784339904785,0.686274528503418,0.560784339904785);
#292=CARTESIAN_POINT('',(0.00547915019414502,-7.78125347791196E-05,0.001));
#293=CARTESIAN_POINT('',(0.00547915019414502,-7.78125347791196E-05,0.0));
#294=CARTESIAN_POINT('',(0.00547915019414502,-7.78125347791196E-05,0.0));
#295=VECTOR('',#334,1.0);
#296=CARTESIAN_POINT('',(-0.00552084980585498,-7.7812534779121E-05,0.001));
#297=AXIS2_PLACEMENT_3D('',#335,#336,#337);
#298=CARTESIAN_POINT('',(-0.00552084980585498,-7.78125347791203E-05,0.0));
#299=CARTESIAN_POINT('',(-0.00552084980585498,-7.7812534779121E-05,0.0));
#300=VECTOR('',#338,1.0);
#301=AXIS2_PLACEMENT_3D('',#339,#340,#341);
#302=COLOUR_RGB('',0.560784339904785,0.686274528503418,0.560784339904785);
#303=CARTESIAN_POINT('',(0.00347915019414502,-7.78125347791207E-05,0.02));
#304=CARTESIAN_POINT('',(0.00347915019414502,-7.78125347791207E-05,0.000999999999999999));
#305=CARTESIAN_POINT('',(0.00347915019414502,-7.78125347791207E-05,0.0105));
#306=VECTOR('',#342,1.0);
#307=CARTESIAN_POINT('',(-0.00352084980585498,-7.78125347791207E-05,0.02));
#308=AXIS2_PLACEMENT_3D('',#343,#344,#345);
#309=CARTESIAN_POINT('',(-0.00352084980585498,-7.78125347791207E-05,0.001));
#310=CARTESIAN_POINT('',(-0.00352084980585498,-7.78125347791199E-05,0.0105));
#311=VECTOR('',#346,1.0);
#312=AXIS2_PLACEMENT_3D('',#347,#348,#349);
#313=COLOUR_RGB('',0.560784339904785,0.686274528503418,0.560784339904785);
#314=AXIS2_PLACEMENT_3D('',#350,#351,#352);
#315=AXIS2_PLACEMENT_3D('',#353,#354,#355);
#316=COLOUR_RGB('',0.560784339904785,0.686274528503418,0.560784339904785);
#317=AXIS2_PLACEMENT_3D('',#356,#357,#358);
#318=AXIS2_PLACEMENT_3D('',#359,#360,#361);
#319=COLOUR_RGB('',0.560784339904785,0.686274528503418,0.560784339904785);
#320=AXIS2_PLACEMENT_3D('',#362,#363,#364);
#321=COLOUR_RGB('',0.560784339904785,0.686274528503418,0.560784339904785);
#322=AXIS2_PLACEMENT_3D('',#365,#366,#367);
#323=COLOUR_RGB('',0.560784339904785,0.686274528503418,0.560784339904785);
#324=COLOUR_RGB('',0.560784339904785,0.686274528503418,0.560784339904785);
#325=COLOUR_RGB('',0.560784339904785,0.686274528503418,0.560784339904785);
#326=DIRECTION('',(0.0,0.0,1.0));
#327=CARTESIAN_POINT('',(-2.08498058549833E-05,-7.78125347791203E-05,0.0));
#328=DIRECTION('',(0.0,0.0,-1.0));
#329=DIRECTION('',(1.0,0.0,0.0));
#330=DIRECTION('',(-0.0,-0.0,-1.0));
#331=CARTESIAN_POINT('',(-2.08498058549833E-05,-7.78125347791203E-05,0.02));
#332=DIRECTION('',(0.0,0.0,-1.0));
#333=DIRECTION('',(1.0,0.0,0.0));
#334=DIRECTION('',(0.0,0.0,-1.0));
#335=CARTESIAN_POINT('',(-2.08498058549833E-05,-7.78125347791203E-05,0.001));
#336=DIRECTION('',(0.0,0.0,1.0));
#337=DIRECTION('',(-1.0,0.0,-0.0));
#338=DIRECTION('',(0.0,0.0,1.0));
#339=CARTESIAN_POINT('',(-2.08498058549833E-05,-7.78125347791203E-05,0.0));
#340=DIRECTION('',(0.0,0.0,-1.0));
#341=DIRECTION('',(-1.0,0.0,0.0));
#342=DIRECTION('',(-0.0,0.0,-1.0));
#343=CARTESIAN_POINT('',(-2.08498058549833E-05,-7.78125347791203E-05,0.02));
#344=DIRECTION('',(0.0,0.0,1.0));
#345=DIRECTION('',(1.0,0.0,0.0));
#346=DIRECTION('',(-0.0,0.0,1.0));
#347=CARTESIAN_POINT('',(-2.08498058549833E-05,-7.78125347791203E-05,0.001));
#348=DIRECTION('',(0.0,0.0,1.0));
#349=DIRECTION('',(1.0,0.0,0.0));
#350=CARTESIAN_POINT('',(-2.08498058549833E-05,-7.78125347791203E-05,0.0));
#351=DIRECTION('',(0.0,0.0,-1.0));
#352=DIRECTION('',(-1.0,0.0,0.0));
#353=CARTESIAN_POINT('',(-2.08498058549833E-05,-7.78125347791203E-05,0.0));
#354=DIRECTION('',(0.0,0.0,-1.0));
#355=DIRECTION('',(1.0,0.0,0.0));
#356=CARTESIAN_POINT('',(-2.08498058549833E-05,-7.78125347791203E-05,0.02));
#357=DIRECTION('',(0.0,0.0,1.0));
#358=DIRECTION('',(1.0,0.0,0.0));
#359=CARTESIAN_POINT('',(-2.08498058549833E-05,-7.78125347791203E-05,0.02));
#360=DIRECTION('',(0.0,0.0,-1.0));
#361=DIRECTION('',(1.0,0.0,0.0));
#362=CARTESIAN_POINT('',(-2.08498058549833E-05,-7.78125347791203E-05,0.001));
#363=DIRECTION('',(0.0,0.0,1.0));
#364=DIRECTION('',(1.0,0.0,0.0));
#365=CARTESIAN_POINT('',(-2.08498058549833E-05,-7.78125347791203E-05,0.001));
#366=DIRECTION('',(0.0,0.0,1.0));
#367=DIRECTION('',(-1.0,0.0,-0.0));
#368=PRESENTATION_LAYER_ASSIGNMENT('9','Calque0',(#52));
ENDSEC;
END-ISO-10303-21;
