ISO-10303-21;
HEADER;
FILE_DESCRIPTION(('FreeCAD Model'),'2;1');
FILE_NAME('Open CASCADE Shape Model','2023-12-05T20:59:27',('Author'),(
    ''),'Open CASCADE STEP processor 7.6','FreeCAD','Unknown');
FILE_SCHEMA(('AUTOMOTIVE_DESIGN { 1 0 10303 214 1 1 1 1 }'));
ENDSEC;
DATA;
#1 = APPLICATION_PROTOCOL_DEFINITION('international standard',
  'automotive_design',2000,#2);
#2 = APPLICATION_CONTEXT(
  'core data for automotive mechanical design processes');
#3 = SHAPE_DEFINITION_REPRESENTATION(#4,#10);
#4 = PRODUCT_DEFINITION_SHAPE('','',#5);
#5 = PRODUCT_DEFINITION('design','',#6,#9);
#6 = PRODUCT_DEFINITION_FORMATION('','',#7);
#7 = PRODUCT('Body','Body','',(#8));
#8 = PRODUCT_CONTEXT('',#2,'mechanical');
#9 = PRODUCT_DEFINITION_CONTEXT('part definition',#2,'design');
#10 = ADVANCED_BREP_SHAPE_REPRESENTATION('',(#11,#15),#333);
#11 = AXIS2_PLACEMENT_3D('',#12,#13,#14);
#12 = CARTESIAN_POINT('',(0.,0.,0.));
#13 = DIRECTION('',(0.,0.,1.));
#14 = DIRECTION('',(1.,0.,-0.));
#15 = MANIFOLD_SOLID_BREP('',#16);
#16 = CLOSED_SHELL('',(#17,#34,#297,#316));
#17 = ADVANCED_FACE('',(#18),#29,.T.);
#18 = FACE_BOUND('',#19,.F.);
#19 = EDGE_LOOP('',(#20));
#20 = ORIENTED_EDGE('',*,*,#21,.F.);
#21 = EDGE_CURVE('',#22,#22,#24,.T.);
#22 = VERTEX_POINT('',#23);
#23 = CARTESIAN_POINT('',(6.5,0.,0.));
#24 = CIRCLE('',#25,6.5);
#25 = AXIS2_PLACEMENT_3D('',#26,#27,#28);
#26 = CARTESIAN_POINT('',(0.,0.,0.));
#27 = DIRECTION('',(0.,-1.,0.));
#28 = DIRECTION('',(1.,0.,0.));
#29 = PLANE('',#30);
#30 = AXIS2_PLACEMENT_3D('',#31,#32,#33);
#31 = CARTESIAN_POINT('',(0.,0.,0.));
#32 = DIRECTION('',(-0.,-1.,-0.));
#33 = DIRECTION('',(1.,0.,0.));
#34 = ADVANCED_FACE('',(#35,#54,#173),#292,.T.);
#35 = FACE_BOUND('',#36,.F.);
#36 = EDGE_LOOP('',(#37,#45,#46,#47));
#37 = ORIENTED_EDGE('',*,*,#38,.F.);
#38 = EDGE_CURVE('',#22,#39,#41,.T.);
#39 = VERTEX_POINT('',#40);
#40 = CARTESIAN_POINT('',(6.5,64.133379183947,0.));
#41 = LINE('',#42,#43);
#42 = CARTESIAN_POINT('',(6.5,0.,0.));
#43 = VECTOR('',#44,1.);
#44 = DIRECTION('',(0.,1.,0.));
#45 = ORIENTED_EDGE('',*,*,#21,.T.);
#46 = ORIENTED_EDGE('',*,*,#38,.T.);
#47 = ORIENTED_EDGE('',*,*,#48,.F.);
#48 = EDGE_CURVE('',#39,#39,#49,.T.);
#49 = CIRCLE('',#50,6.5);
#50 = AXIS2_PLACEMENT_3D('',#51,#52,#53);
#51 = CARTESIAN_POINT('',(0.,64.133379183947,0.));
#52 = DIRECTION('',(0.,-1.,0.));
#53 = DIRECTION('',(1.,0.,0.));
#54 = FACE_BOUND('',#55,.F.);
#55 = EDGE_LOOP('',(#56));
#56 = ORIENTED_EDGE('',*,*,#57,.F.);
#57 = EDGE_CURVE('',#58,#58,#60,.T.);
#58 = VERTEX_POINT('',#59);
#59 = CARTESIAN_POINT('',(3.,20.,-5.766281297335));
#60 = B_SPLINE_CURVE_WITH_KNOTS('',6,(#61,#62,#63,#64,#65,#66,#67,#68,
    #69,#70,#71,#72,#73,#74,#75,#76,#77,#78,#79,#80,#81,#82,#83,#84,#85,
    #86,#87,#88,#89,#90,#91,#92,#93,#94,#95,#96,#97,#98,#99,#100,#101,
    #102,#103,#104,#105,#106,#107,#108,#109,#110,#111,#112,#113,#114,
    #115,#116,#117,#118,#119,#120,#121,#122,#123,#124,#125,#126,#127,
    #128,#129,#130,#131,#132,#133,#134,#135,#136,#137,#138,#139,#140,
    #141,#142,#143,#144,#145,#146,#147,#148,#149,#150,#151,#152,#153,
    #154,#155,#156,#157,#158,#159,#160,#161,#162,#163,#164,#165,#166,
    #167,#168,#169,#170,#171,#172),.UNSPECIFIED.,.T.,.F.,(7,5,5,5,5,5,5,
    5,5,5,5,5,5,5,5,5,5,5,5,5,5,5,7),(0.,7.128629069997E-02,
    0.121615460126,0.160175584946,0.188839979271,0.224315773505,
    0.2762335581,0.310984536282,0.339214412265,0.377331690119,
    0.428131673805,0.499597833374,0.537795658684,0.571234687969,
    0.660112672362,0.688784727533,0.72426997874,0.776201556499,
    0.810961796325,0.839199218049,0.87732668451,0.928140245152,1.),
  .UNSPECIFIED.);
#61 = CARTESIAN_POINT('',(3.,20.,-5.766281297335));
#62 = CARTESIAN_POINT('',(3.,20.198959636808,-5.766281297335));
#63 = CARTESIAN_POINT('',(2.984166103142,20.39776405107,-5.774519127522)
  );
#64 = CARTESIAN_POINT('',(2.952544106302,20.59531452264,-5.79097100744)
  );
#65 = CARTESIAN_POINT('',(2.905138196743,20.790493956368,-5.815220293206
    ));
#66 = CARTESIAN_POINT('',(2.841929960015,20.982099186391,-5.846455786155
    ));
#67 = CARTESIAN_POINT('',(2.707209532258,21.300575065018,-5.909721683901
    ));
#68 = CARTESIAN_POINT('',(2.643581948607,21.429963132499,-5.938828031908
    ));
#69 = CARTESIAN_POINT('',(2.572014333244,21.556627558865,-5.970494689968
    ));
#70 = CARTESIAN_POINT('',(2.492391729227,21.680195264209,-6.004299989979
    ));
#71 = CARTESIAN_POINT('',(2.40456517492,21.800208612724,-6.039756271559)
  );
#72 = CARTESIAN_POINT('',(2.234665175199,22.004890886716,-6.104300744594
    ));
#73 = CARTESIAN_POINT('',(2.15603529183,22.091279095642,-6.132944423256)
  );
#74 = CARTESIAN_POINT('',(2.072370255257,22.175040421934,-6.161990937856
    ));
#75 = CARTESIAN_POINT('',(1.983561511328,22.255889923186,-6.191167398885
    ));
#76 = CARTESIAN_POINT('',(1.889501047285,22.333481236438,-6.220167277674
    ));
#77 = CARTESIAN_POINT('',(1.716178192407,22.462359471047,-6.26981997611)
  );
#78 = CARTESIAN_POINT('',(1.639299021546,22.515296983306,-6.290708959849
    ));
#79 = CARTESIAN_POINT('',(1.559428924506,22.56602659641,-6.311165785221)
  );
#80 = CARTESIAN_POINT('',(1.476561917417,22.614340168467,-6.331029918835
    ));
#81 = CARTESIAN_POINT('',(1.390702896262,22.66001277711,-6.350131246817)
  );
#82 = CARTESIAN_POINT('',(1.191924182388,22.755759223693,-6.390767528476
    ));
#83 = CARTESIAN_POINT('',(1.077281175749,22.804367690556,-6.411831090141
    ));
#84 = CARTESIAN_POINT('',(0.958268657634,22.84799286019,-6.431072211449)
  );
#85 = CARTESIAN_POINT('',(0.83526461603,22.886067380606,-6.448100110844)
  );
#86 = CARTESIAN_POINT('',(0.708694122519,22.918084398295,-6.462561447943
    ));
#87 = CARTESIAN_POINT('',(0.389265094102,22.980918644259,-6.491130150899
    ));
#88 = CARTESIAN_POINT('',(0.193002663363,23.00427704478,-6.501955332268)
  );
#89 = CARTESIAN_POINT('',(-6.563588684507E-03,23.011948668816,
    -6.505563220985));
#90 = CARTESIAN_POINT('',(-0.206056774725,23.003400049124,
    -6.501546613174));
#91 = CARTESIAN_POINT('',(-0.402102379815,22.979201335118,
    -6.490338130353));
#92 = CARTESIAN_POINT('',(-0.718291690203,22.915609785617,
    -6.461444459243));
#93 = CARTESIAN_POINT('',(-0.842065367878,22.883893166817,
    -6.447129326979));
#94 = CARTESIAN_POINT('',(-0.962394707686,22.846387079865,
    -6.430367214081));
#95 = CARTESIAN_POINT('',(-1.078884044109,22.80356953431,-6.411491089302
    ));
#96 = CARTESIAN_POINT('',(-1.191181072934,22.755973355225,
    -6.390867799981));
#97 = CARTESIAN_POINT('',(-1.386546794602,22.662128032232,
    -6.351021590894));
#98 = CARTESIAN_POINT('',(-1.471231035165,22.617261377447,
    -6.332244714506));
#99 = CARTESIAN_POINT('',(-1.553014094535,22.569824291237,
    -6.312721535493));
#100 = CARTESIAN_POINT('',(-1.631890184596,22.520032519196,
    -6.292614988886));
#101 = CARTESIAN_POINT('',(-1.707863905857,22.468086167491,
    -6.272079077505));
#102 = CARTESIAN_POINT('',(-1.879633455428,22.341370614627,
    -6.223142854275));
#103 = CARTESIAN_POINT('',(-1.973076055953,22.264962688822,
    -6.19450043692));
#104 = CARTESIAN_POINT('',(-2.061378903782,22.185344556472,
    -6.165662703072));
#105 = CARTESIAN_POINT('',(-2.144645947856,22.102854483136,
    -6.136927819578));
#106 = CARTESIAN_POINT('',(-2.222982317751,22.017771516557,
    -6.108561547128));
#107 = CARTESIAN_POINT('',(-2.394462731869,21.813761624228,
    -6.043799737356));
#108 = CARTESIAN_POINT('',(-2.483886365641,21.692962626706,
    -6.007863531631));
#109 = CARTESIAN_POINT('',(-2.564938658305,21.568509294393,
    -5.973573120482));
#110 = CARTESIAN_POINT('',(-2.637776033164,21.44087550623,
    -5.941432980564));
#111 = CARTESIAN_POINT('',(-2.702519518628,21.310445881769,
    -5.911878915846));
#112 = CARTESIAN_POINT('',(-2.839029688587,20.99057302539,
    -5.847877961289));
#113 = CARTESIAN_POINT('',(-2.902978708838,20.798613812449,
    -5.816312818805));
#114 = CARTESIAN_POINT('',(-2.951043394142,20.603029812847,
    -5.791744982601));
#115 = CARTESIAN_POINT('',(-2.98324374843,20.405032941262,
    -5.774998926981));
#116 = CARTESIAN_POINT('',(-2.999576152699,20.205746901572,
    -5.766501810059));
#117 = CARTESIAN_POINT('',(-3.000216468511,19.899660875184,
    -5.766168676451));
#118 = CARTESIAN_POINT('',(-2.995892791601,19.793046679265,
    -5.768418067245));
#119 = CARTESIAN_POINT('',(-2.9870235602,19.686617328096,-5.773033538717
    ));
#120 = CARTESIAN_POINT('',(-2.973610885089,19.580560366103,
    -5.77998034228));
#121 = CARTESIAN_POINT('',(-2.955659014443,19.475067001681,
    -5.789189456053));
#122 = CARTESIAN_POINT('',(-2.913493076574,19.278645779133,
    -5.810511556674));
#123 = CARTESIAN_POINT('',(-2.890338575865,19.187544238191,
    -5.822119478017));
#124 = CARTESIAN_POINT('',(-2.8637122838,19.097134520427,-5.835316576485
    ));
#125 = CARTESIAN_POINT('',(-2.833611204941,19.007529921245,
    -5.850020290854));
#126 = CARTESIAN_POINT('',(-2.80003002254,18.91885036058,-5.866132365305
    ));
#127 = CARTESIAN_POINT('',(-2.664438629163,18.598315539995,
    -5.929807276167));
#128 = CARTESIAN_POINT('',(-2.541457123668,18.373250105729,
    -5.985144872563));
#129 = CARTESIAN_POINT('',(-2.393647649705,18.157405977799,
    -6.047556673983));
#130 = CARTESIAN_POINT('',(-2.220002712598,17.952895435128,
    -6.114580017543));
#131 = CARTESIAN_POINT('',(-2.01917279891,17.762939206441,
    -6.183019537501));
#132 = CARTESIAN_POINT('',(-1.716178182778,17.537640521793,
    -6.269819978868));
#133 = CARTESIAN_POINT('',(-1.639299023746,17.484703019553,
    -6.290708958831));
#134 = CARTESIAN_POINT('',(-1.559428935528,17.433973410186,
    -6.31116578256));
#135 = CARTESIAN_POINT('',(-1.476561921053,17.385659832195,
    -6.331029918431));
#136 = CARTESIAN_POINT('',(-1.390702883745,17.33998721686,
    -6.350131249376));
#137 = CARTESIAN_POINT('',(-1.191924273129,17.244240820015,
    -6.390767509925));
#138 = CARTESIAN_POINT('',(-1.077281152042,17.195632285776,
    -6.41183109997));
#139 = CARTESIAN_POINT('',(-0.958268552564,17.152007105648,
    -6.431072226338));
#140 = CARTESIAN_POINT('',(-0.835264582719,17.113932624197,
    -6.448100109263));
#141 = CARTESIAN_POINT('',(-0.708694239466,17.081915624709,
    -6.462561437484));
#142 = CARTESIAN_POINT('',(-0.389265094102,17.019081355741,
    -6.491130150899));
#143 = CARTESIAN_POINT('',(-0.193002663363,16.99572295522,
    -6.501955332268));
#144 = CARTESIAN_POINT('',(6.563588683965E-03,16.988051331184,
    -6.505563220985));
#145 = CARTESIAN_POINT('',(0.206056774725,16.996599950877,
    -6.501546613174));
#146 = CARTESIAN_POINT('',(0.402102379815,17.020798664882,
    -6.490338130353));
#147 = CARTESIAN_POINT('',(0.718291796848,17.084390235831,
    -6.461444449498));
#148 = CARTESIAN_POINT('',(0.842065336453,17.116106837032,
    -6.447129325772));
#149 = CARTESIAN_POINT('',(0.962394610651,17.15361288833,-6.430367227944
    ));
#150 = CARTESIAN_POINT('',(1.078884022508,17.1964304442,-6.411491098223)
  );
#151 = CARTESIAN_POINT('',(1.191181157173,17.24402668524,-6.3908677828)
  );
#152 = CARTESIAN_POINT('',(1.386546794602,17.337871967768,
    -6.351021590894));
#153 = CARTESIAN_POINT('',(1.471231035165,17.382738622553,
    -6.332244714506));
#154 = CARTESIAN_POINT('',(1.553014094535,17.430175708763,
    -6.312721535493));
#155 = CARTESIAN_POINT('',(1.631890184596,17.479967480804,
    -6.292614988886));
#156 = CARTESIAN_POINT('',(1.707863905856,17.531913832509,
    -6.272079077505));
#157 = CARTESIAN_POINT('',(1.879633455428,17.658629385373,
    -6.223142854275));
#158 = CARTESIAN_POINT('',(1.973076055952,17.735037311178,-6.19450043692
    ));
#159 = CARTESIAN_POINT('',(2.061378903782,17.814655443528,
    -6.165662703072));
#160 = CARTESIAN_POINT('',(2.144645947856,17.897145516864,
    -6.136927819578));
#161 = CARTESIAN_POINT('',(2.222982317751,17.982228483443,
    -6.108561547128));
#162 = CARTESIAN_POINT('',(2.394462728608,18.186238371893,
    -6.043799738588));
#163 = CARTESIAN_POINT('',(2.483886369825,18.307037379754,
    -6.007863529923));
#164 = CARTESIAN_POINT('',(2.564938658991,18.431490705468,
    -5.973573120298));
#165 = CARTESIAN_POINT('',(2.637776029307,18.559124487251,
    -5.941432982183));
#166 = CARTESIAN_POINT('',(2.702519520418,18.689554122427,
    -5.911878915006));
#167 = CARTESIAN_POINT('',(2.839447698089,19.010406461291,
    -5.847681983164));
#168 = CARTESIAN_POINT('',(2.903649144421,19.203399562085,
    -5.815981859738));
#169 = CARTESIAN_POINT('',(2.951798833897,19.400049163983,
    -5.791358747519));
#170 = CARTESIAN_POINT('',(2.983917032914,19.599123789542,-5.77464871015
    ));
#171 = CARTESIAN_POINT('',(3.,19.799481610265,-5.766281297335));
#172 = CARTESIAN_POINT('',(3.,20.,-5.766281297335));
#173 = FACE_BOUND('',#174,.F.);
#174 = EDGE_LOOP('',(#175));
#175 = ORIENTED_EDGE('',*,*,#176,.T.);
#176 = EDGE_CURVE('',#177,#177,#179,.T.);
#177 = VERTEX_POINT('',#178);
#178 = CARTESIAN_POINT('',(3.,20.,5.766281297335));
#179 = B_SPLINE_CURVE_WITH_KNOTS('',6,(#180,#181,#182,#183,#184,#185,
    #186,#187,#188,#189,#190,#191,#192,#193,#194,#195,#196,#197,#198,
    #199,#200,#201,#202,#203,#204,#205,#206,#207,#208,#209,#210,#211,
    #212,#213,#214,#215,#216,#217,#218,#219,#220,#221,#222,#223,#224,
    #225,#226,#227,#228,#229,#230,#231,#232,#233,#234,#235,#236,#237,
    #238,#239,#240,#241,#242,#243,#244,#245,#246,#247,#248,#249,#250,
    #251,#252,#253,#254,#255,#256,#257,#258,#259,#260,#261,#262,#263,
    #264,#265,#266,#267,#268,#269,#270,#271,#272,#273,#274,#275,#276,
    #277,#278,#279,#280,#281,#282,#283,#284,#285,#286,#287,#288,#289,
    #290,#291),.UNSPECIFIED.,.T.,.F.,(7,5,5,5,5,5,5,5,5,5,5,5,5,5,5,5,5,
    5,5,5,5,5,7),(0.,7.128628405721E-02,0.121615450302,0.160175571469,
    0.188839966815,0.224315737998,0.276233441985,0.310984395459,
    0.339214277486,0.377331568525,0.428131568093,0.499597752261,
    0.537795590719,0.571234631514,0.660112646499,0.688784707693,
    0.7242699612,0.77620154232,0.810961784368,0.839199207878,
    0.877326676751,0.928140240607,1.),.UNSPECIFIED.);
#180 = CARTESIAN_POINT('',(3.,20.,5.766281297335));
#181 = CARTESIAN_POINT('',(3.,20.198959636808,5.766281297335));
#182 = CARTESIAN_POINT('',(2.984166103142,20.397764051071,5.774519127522
    ));
#183 = CARTESIAN_POINT('',(2.952544106302,20.595314522639,5.79097100744)
  );
#184 = CARTESIAN_POINT('',(2.905138196743,20.790493956369,5.815220293206
    ));
#185 = CARTESIAN_POINT('',(2.841929960015,20.982099186391,5.846455786155
    ));
#186 = CARTESIAN_POINT('',(2.707209530587,21.300575068969,5.909721684686
    ));
#187 = CARTESIAN_POINT('',(2.643581952201,21.429963126361,5.938828030394
    ));
#188 = CARTESIAN_POINT('',(2.57201433261,21.556627558733,5.97049469014)
  );
#189 = CARTESIAN_POINT('',(2.49239172533,21.680195270292,6.004299991576)
  );
#190 = CARTESIAN_POINT('',(2.404565177952,21.800208609071,6.039756270408
    ));
#191 = CARTESIAN_POINT('',(2.2346651752,22.004890886716,6.104300744594)
  );
#192 = CARTESIAN_POINT('',(2.15603529183,22.091279095642,6.132944423256)
  );
#193 = CARTESIAN_POINT('',(2.072370255257,22.175040421934,6.161990937856
    ));
#194 = CARTESIAN_POINT('',(1.983561511328,22.255889923186,6.191167398885
    ));
#195 = CARTESIAN_POINT('',(1.889501047285,22.333481236438,6.220167277674
    ));
#196 = CARTESIAN_POINT('',(1.716178182778,22.462359478207,6.269819978868
    ));
#197 = CARTESIAN_POINT('',(1.639299023746,22.515296980447,6.290708958831
    ));
#198 = CARTESIAN_POINT('',(1.559428935528,22.566026589814,6.31116578256)
  );
#199 = CARTESIAN_POINT('',(1.476561921053,22.614340167805,6.331029918431
    ));
#200 = CARTESIAN_POINT('',(1.390702883745,22.66001278314,6.350131249376)
  );
#201 = CARTESIAN_POINT('',(1.191924273225,22.755759179939,6.390767509906
    ));
#202 = CARTESIAN_POINT('',(1.077281152017,22.804367714249,6.411831099981
    ));
#203 = CARTESIAN_POINT('',(0.958268552453,22.847992894388,6.431072226354
    ));
#204 = CARTESIAN_POINT('',(0.835264582684,22.886067375797,6.448100109261
    ));
#205 = CARTESIAN_POINT('',(0.70869423959,22.918084375266,6.462561437473)
  );
#206 = CARTESIAN_POINT('',(0.389265094102,22.980918644259,6.491130150899
    ));
#207 = CARTESIAN_POINT('',(0.193002663363,23.00427704478,6.501955332268)
  );
#208 = CARTESIAN_POINT('',(-6.563588684174E-03,23.011948668816,
    6.505563220985));
#209 = CARTESIAN_POINT('',(-0.206056774725,23.003400049124,
    6.501546613174));
#210 = CARTESIAN_POINT('',(-0.402102379815,22.979201335118,
    6.490338130353));
#211 = CARTESIAN_POINT('',(-0.718291796902,22.915609764158,
    6.461444449493));
#212 = CARTESIAN_POINT('',(-0.842065336437,22.883893162966,
    6.447129325771));
#213 = CARTESIAN_POINT('',(-0.962394610602,22.846387111686,
    6.430367227951));
#214 = CARTESIAN_POINT('',(-1.078884022497,22.803569555811,
    6.411491098228));
#215 = CARTESIAN_POINT('',(-1.191181157216,22.75597331474,6.390867782791
    ));
#216 = CARTESIAN_POINT('',(-1.386546807147,22.662128026206,
    6.351021588336));
#217 = CARTESIAN_POINT('',(-1.471231031566,22.617261378099,
    6.332244714903));
#218 = CARTESIAN_POINT('',(-1.553014083503,22.569824297803,
    6.312721538146));
#219 = CARTESIAN_POINT('',(-1.631890182357,22.520032522045,
    6.292614989905));
#220 = CARTESIAN_POINT('',(-1.70786391549,22.468086160385,6.27207907476)
  );
#221 = CARTESIAN_POINT('',(-1.879633455428,22.341370614627,
    6.223142854275));
#222 = CARTESIAN_POINT('',(-1.973076055952,22.264962688822,6.19450043692
    ));
#223 = CARTESIAN_POINT('',(-2.061378903782,22.185344556472,
    6.165662703072));
#224 = CARTESIAN_POINT('',(-2.144645947856,22.102854483136,
    6.136927819578));
#225 = CARTESIAN_POINT('',(-2.222982317751,22.017771516557,
    6.108561547128));
#226 = CARTESIAN_POINT('',(-2.394462728608,21.813761628107,
    6.043799738588));
#227 = CARTESIAN_POINT('',(-2.483886369825,21.692962620246,
    6.007863529923));
#228 = CARTESIAN_POINT('',(-2.564938658991,21.568509294532,
    5.973573120298));
#229 = CARTESIAN_POINT('',(-2.637776029307,21.440875512749,
    5.941432982183));
#230 = CARTESIAN_POINT('',(-2.702519520418,21.310445877573,
    5.911878915006));
#231 = CARTESIAN_POINT('',(-2.839029688587,20.99057302539,5.847877961289
    ));
#232 = CARTESIAN_POINT('',(-2.902978708838,20.798613812449,
    5.816312818805));
#233 = CARTESIAN_POINT('',(-2.951043394142,20.603029812847,
    5.791744982601));
#234 = CARTESIAN_POINT('',(-2.98324374843,20.405032941262,5.774998926981
    ));
#235 = CARTESIAN_POINT('',(-2.999576152699,20.205746901572,
    5.766501810059));
#236 = CARTESIAN_POINT('',(-3.000216468511,19.899660875184,
    5.766168676451));
#237 = CARTESIAN_POINT('',(-2.995892791601,19.793046679265,
    5.768418067245));
#238 = CARTESIAN_POINT('',(-2.9870235602,19.686617328096,5.773033538717)
  );
#239 = CARTESIAN_POINT('',(-2.973610885089,19.580560366103,5.77998034228
    ));
#240 = CARTESIAN_POINT('',(-2.955659014443,19.475067001681,
    5.789189456053));
#241 = CARTESIAN_POINT('',(-2.913493076574,19.278645779133,
    5.810511556674));
#242 = CARTESIAN_POINT('',(-2.890338575865,19.187544238191,
    5.822119478017));
#243 = CARTESIAN_POINT('',(-2.8637122838,19.097134520427,5.835316576485)
  );
#244 = CARTESIAN_POINT('',(-2.833611204941,19.007529921245,
    5.850020290854));
#245 = CARTESIAN_POINT('',(-2.800030022541,18.91885036058,5.866132365305
    ));
#246 = CARTESIAN_POINT('',(-2.664438629163,18.598315539995,
    5.929807276167));
#247 = CARTESIAN_POINT('',(-2.541457123668,18.373250105729,
    5.985144872563));
#248 = CARTESIAN_POINT('',(-2.393647649705,18.157405977798,
    6.047556673983));
#249 = CARTESIAN_POINT('',(-2.220002712598,17.952895435128,
    6.114580017543));
#250 = CARTESIAN_POINT('',(-2.01917279891,17.762939206441,6.183019537501
    ));
#251 = CARTESIAN_POINT('',(-1.716178192694,17.537640529166,
    6.269819976028));
#252 = CARTESIAN_POINT('',(-1.639299021481,17.48470301661,6.290708959879
    ));
#253 = CARTESIAN_POINT('',(-1.559428924178,17.433973403393,
    6.311165785301));
#254 = CARTESIAN_POINT('',(-1.476561917308,17.385659831513,
    6.331029918847));
#255 = CARTESIAN_POINT('',(-1.390702896635,17.339987223069,
    6.350131246741));
#256 = CARTESIAN_POINT('',(-1.191924273141,17.24424082002,6.390767509923
    ));
#257 = CARTESIAN_POINT('',(-1.077281152039,17.195632285773,
    6.411831099971));
#258 = CARTESIAN_POINT('',(-0.958268552551,17.152007105644,6.43107222634
    ));
#259 = CARTESIAN_POINT('',(-0.835264582715,17.113932624198,
    6.448100109263));
#260 = CARTESIAN_POINT('',(-0.708694239482,17.081915624712,
    6.462561437482));
#261 = CARTESIAN_POINT('',(-0.389265094102,17.019081355741,
    6.491130150899));
#262 = CARTESIAN_POINT('',(-0.193002663363,16.99572295522,6.501955332268
    ));
#263 = CARTESIAN_POINT('',(6.56358868467E-03,16.988051331184,
    6.505563220985));
#264 = CARTESIAN_POINT('',(0.206056774725,16.996599950876,6.501546613174
    ));
#265 = CARTESIAN_POINT('',(0.402102379815,17.020798664882,6.490338130353
    ));
#266 = CARTESIAN_POINT('',(0.718291796752,17.084390235812,6.461444449507
    ));
#267 = CARTESIAN_POINT('',(0.842065336481,17.116106837028,6.447129325773
    ));
#268 = CARTESIAN_POINT('',(0.962394610738,17.153612888359,6.430367227932
    ));
#269 = CARTESIAN_POINT('',(1.078884022527,17.196430444219,6.411491098215
    ));
#270 = CARTESIAN_POINT('',(1.191181157097,17.244026685204,6.390867782816
    ));
#271 = CARTESIAN_POINT('',(1.386546794602,17.337871967768,6.351021590894
    ));
#272 = CARTESIAN_POINT('',(1.471231035165,17.382738622553,6.332244714506
    ));
#273 = CARTESIAN_POINT('',(1.553014094535,17.430175708763,6.312721535493
    ));
#274 = CARTESIAN_POINT('',(1.631890184596,17.479967480804,6.292614988886
    ));
#275 = CARTESIAN_POINT('',(1.707863905856,17.531913832509,6.272079077505
    ));
#276 = CARTESIAN_POINT('',(1.879633455428,17.658629385373,6.223142854275
    ));
#277 = CARTESIAN_POINT('',(1.973076055952,17.735037311178,6.19450043692)
  );
#278 = CARTESIAN_POINT('',(2.061378903782,17.814655443528,6.165662703072
    ));
#279 = CARTESIAN_POINT('',(2.144645947856,17.897145516864,6.136927819578
    ));
#280 = CARTESIAN_POINT('',(2.222982317751,17.982228483443,6.108561547128
    ));
#281 = CARTESIAN_POINT('',(2.394462728608,18.186238371893,6.043799738588
    ));
#282 = CARTESIAN_POINT('',(2.483886369825,18.307037379754,6.007863529923
    ));
#283 = CARTESIAN_POINT('',(2.564938658991,18.431490705468,5.973573120298
    ));
#284 = CARTESIAN_POINT('',(2.637776029306,18.559124487251,5.941432982183
    ));
#285 = CARTESIAN_POINT('',(2.702519520418,18.689554122427,5.911878915006
    ));
#286 = CARTESIAN_POINT('',(2.839447698089,19.010406461291,5.847681983164
    ));
#287 = CARTESIAN_POINT('',(2.903649144421,19.203399562085,5.815981859738
    ));
#288 = CARTESIAN_POINT('',(2.951798833897,19.400049163983,5.791358747519
    ));
#289 = CARTESIAN_POINT('',(2.983917032914,19.599123789542,5.77464871015)
  );
#290 = CARTESIAN_POINT('',(3.,19.799481610265,5.766281297335));
#291 = CARTESIAN_POINT('',(3.,20.,5.766281297335));
#292 = CYLINDRICAL_SURFACE('',#293,6.5);
#293 = AXIS2_PLACEMENT_3D('',#294,#295,#296);
#294 = CARTESIAN_POINT('',(0.,0.,0.));
#295 = DIRECTION('',(0.,1.,0.));
#296 = DIRECTION('',(1.,0.,0.));
#297 = ADVANCED_FACE('',(#298),#311,.T.);
#298 = FACE_BOUND('',#299,.F.);
#299 = EDGE_LOOP('',(#300,#301,#310));
#300 = ORIENTED_EDGE('',*,*,#48,.T.);
#301 = ORIENTED_EDGE('',*,*,#302,.T.);
#302 = EDGE_CURVE('',#39,#303,#305,.T.);
#303 = VERTEX_POINT('',#304);
#304 = CARTESIAN_POINT('',(4.209723372069E-15,90.,0.));
#305 = CIRCLE('',#306,13.75);
#306 = AXIS2_PLACEMENT_3D('',#307,#308,#309);
#307 = CARTESIAN_POINT('',(0.,76.25,0.));
#308 = DIRECTION('',(0.,0.,1.));
#309 = DIRECTION('',(1.,0.,0.));
#310 = ORIENTED_EDGE('',*,*,#302,.F.);
#311 = SPHERICAL_SURFACE('',#312,13.75);
#312 = AXIS2_PLACEMENT_3D('',#313,#314,#315);
#313 = CARTESIAN_POINT('',(0.,76.25,0.));
#314 = DIRECTION('',(0.,1.,0.));
#315 = DIRECTION('',(1.,0.,0.));
#316 = ADVANCED_FACE('',(#317),#328,.F.);
#317 = FACE_BOUND('',#318,.F.);
#318 = EDGE_LOOP('',(#319,#320,#326,#327));
#319 = ORIENTED_EDGE('',*,*,#176,.F.);
#320 = ORIENTED_EDGE('',*,*,#321,.T.);
#321 = EDGE_CURVE('',#177,#58,#322,.T.);
#322 = LINE('',#323,#324);
#323 = CARTESIAN_POINT('',(3.,20.,98.97186249223));
#324 = VECTOR('',#325,1.);
#325 = DIRECTION('',(-0.,-0.,-1.));
#326 = ORIENTED_EDGE('',*,*,#57,.T.);
#327 = ORIENTED_EDGE('',*,*,#321,.F.);
#328 = CYLINDRICAL_SURFACE('',#329,3.);
#329 = AXIS2_PLACEMENT_3D('',#330,#331,#332);
#330 = CARTESIAN_POINT('',(0.,20.,98.97186249223));
#331 = DIRECTION('',(0.,0.,1.));
#332 = DIRECTION('',(1.,0.,0.));
#333 = ( GEOMETRIC_REPRESENTATION_CONTEXT(3) 
GLOBAL_UNCERTAINTY_ASSIGNED_CONTEXT((#337)) GLOBAL_UNIT_ASSIGNED_CONTEXT
((#334,#335,#336)) REPRESENTATION_CONTEXT('Context #1',
  '3D Context with UNIT and UNCERTAINTY') );
#334 = ( LENGTH_UNIT() NAMED_UNIT(*) SI_UNIT(.MILLI.,.METRE.) );
#335 = ( NAMED_UNIT(*) PLANE_ANGLE_UNIT() SI_UNIT($,.RADIAN.) );
#336 = ( NAMED_UNIT(*) SI_UNIT($,.STERADIAN.) SOLID_ANGLE_UNIT() );
#337 = UNCERTAINTY_MEASURE_WITH_UNIT(LENGTH_MEASURE(1.E-07),#334,
  'distance_accuracy_value','confusion accuracy');
#338 = PRODUCT_RELATED_PRODUCT_CATEGORY('part',$,(#7));
#339 = MECHANICAL_DESIGN_GEOMETRIC_PRESENTATION_REPRESENTATION('',(#340)
  ,#333);
#340 = STYLED_ITEM('color',(#341),#15);
#341 = PRESENTATION_STYLE_ASSIGNMENT((#342,#348));
#342 = SURFACE_STYLE_USAGE(.BOTH.,#343);
#343 = SURFACE_SIDE_STYLE('',(#344));
#344 = SURFACE_STYLE_FILL_AREA(#345);
#345 = FILL_AREA_STYLE('',(#346));
#346 = FILL_AREA_STYLE_COLOUR('',#347);
#347 = COLOUR_RGB('',0.800000010877,0.800000010877,0.800000010877);
#348 = CURVE_STYLE('',#349,POSITIVE_LENGTH_MEASURE(0.1),#350);
#349 = DRAUGHTING_PRE_DEFINED_CURVE_FONT('continuous');
#350 = COLOUR_RGB('',9.803921802644E-02,9.803921802644E-02,
  9.803921802644E-02);
ENDSEC;
END-ISO-10303-21;
