ISO-10303-21;
HEADER;
FILE_DESCRIPTION (( 'STEP AP214' ),
    '1' );
FILE_NAME ('638369383052206306.STEP',
    '2023-11-30T09:51:45',
    ( '' ),
    ( '' ),
    'SwSTEP 2.0',
    'SolidWorks 2018',
    '' );
FILE_SCHEMA (( 'AUTOMOTIVE_DESIGN' ));
ENDSEC;

DATA;
#1 = ORIENTED_EDGE ( 'NONE', *, *, #138, .F. ) ;
#2 = PRODUCT_RELATED_PRODUCT_CATEGORY ( 'part', '', ( #205 ) ) ;
#3 = DIRECTION ( 'NONE',  ( 0.000000000000000000, -1.000000000000000000, -0.000000000000000000 ) ) ;
#4 = FACE_OUTER_BOUND ( 'NONE', #227, .T. ) ;
#5 = CARTESIAN_POINT ( 'NONE',  ( 0.000000000000000000, 17.49999999999999645, 0.000000000000000000 ) ) ;
#6 = DIRECTION ( 'NONE',  ( -0.000000000000000000, -1.000000000000000000, -0.000000000000000000 ) ) ;
#7 = CARTESIAN_POINT ( 'NONE',  ( 0.000000000000000000, 14.50000000000000000, 0.000000000000000000 ) ) ;
#8 = CARTESIAN_POINT ( 'NONE',  ( 0.000000000000000000, 14.50000000000000000, -5.299999999999998934 ) ) ;
#9 = AXIS2_PLACEMENT_3D ( 'NONE', #7, #123, #57 ) ;
#10 = FACE_BOUND ( 'NONE', #61, .T. ) ;
#11 = CIRCLE ( 'NONE', #9, 5.299999999999998934 ) ;
#12 = EDGE_LOOP ( 'NONE', ( #186, #127 ) ) ;
#13 = DIRECTION ( 'NONE',  ( 0.000000000000000000, 0.000000000000000000, -1.000000000000000000 ) ) ;
#14 = LINE ( 'NONE', #183, #272 ) ;
#15 = CARTESIAN_POINT ( 'NONE',  ( 0.000000000000000000, 0.000000000000000000, -5.299999999999998934 ) ) ;
#16 = EDGE_CURVE ( 'NONE', #142, #158, #88, .T. ) ;
#17 = UNCERTAINTY_MEASURE_WITH_UNIT (LENGTH_MEASURE( 1.000000000000000082E-05 ), #155, 'distance_accuracy_value', 'NONE');
#18 = EDGE_CURVE ( 'NONE', #178, #150, #217, .T. ) ;
#19 = PRODUCT_DEFINITION_CONTEXT ( 'detailed design', #226, 'design' ) ;
#20 = EDGE_LOOP ( 'NONE', ( #103, #159 ) ) ;
#21 = ORIENTED_EDGE ( 'NONE', *, *, #249, .T. ) ;
#22 = PRESENTATION_STYLE_ASSIGNMENT (( #117 ) ) ;
#23 =( GEOMETRIC_REPRESENTATION_CONTEXT ( 3 ) GLOBAL_UNCERTAINTY_ASSIGNED_CONTEXT ( ( #115 ) ) GLOBAL_UNIT_ASSIGNED_CONTEXT ( ( #28, #77, #120 ) ) REPRESENTATION_CONTEXT ( 'NONE', 'WORKASPACE' ) );
#24 = AXIS2_PLACEMENT_3D ( 'NONE', #129, #264, #13 ) ;
#25 = VECTOR ( 'NONE', #235, 1000.000000000000000 ) ;
#26 = ORIENTED_EDGE ( 'NONE', *, *, #16, .T. ) ;
#27 = EDGE_LOOP ( 'NONE', ( #278, #21, #218, #135 ) ) ;
#28 =( LENGTH_UNIT ( ) NAMED_UNIT ( * ) SI_UNIT ( .MILLI., .METRE. ) );
#29 = CARTESIAN_POINT ( 'NONE',  ( 6.490628035480970938E-16, 14.50000000000000000, 5.299999999999998934 ) ) ;
#30 = PLANE ( 'NONE',  #191 ) ;
#31 = EDGE_CURVE ( 'NONE', #293, #43, #35, .T. ) ;
#32 = DIRECTION ( 'NONE',  ( 0.000000000000000000, 0.000000000000000000, -1.000000000000000000 ) ) ;
#33 = AXIS2_PLACEMENT_3D ( 'NONE', #239, #167, #54 ) ;
#34 = FACE_OUTER_BOUND ( 'NONE', #208, .T. ) ;
#35 = LINE ( 'NONE', #187, #251 ) ;
#36 = CLOSED_SHELL ( 'NONE', ( #152, #195, #113, #295, #62, #287, #219, #154, #197, #261 ) ) ;
#37 = VERTEX_POINT ( 'NONE', #122 ) ;
#38 = PRESENTATION_LAYER_ASSIGNMENT (  '', '', ( #105 ) ) ;
#39 = DIRECTION ( 'NONE',  ( 0.000000000000000000, 0.000000000000000000, -1.000000000000000000 ) ) ;
#40 = EDGE_CURVE ( 'NONE', #43, #163, #207, .T. ) ;
#41 = CARTESIAN_POINT ( 'NONE',  ( 0.000000000000000000, 0.000000000000000000, 0.000000000000000000 ) ) ;
#42 = COLOUR_RGB ( '',0.7921568627450980005, 0.8196078431372548767, 0.9333333333333333481 ) ;
#43 = VERTEX_POINT ( 'NONE', #165 ) ;
#44 = EDGE_CURVE ( 'NONE', #68, #158, #149, .T. ) ;
#45 = ORIENTED_EDGE ( 'NONE', *, *, #18, .T. ) ;
#46 = FACE_OUTER_BOUND ( 'NONE', #12, .T. ) ;
#47 = EDGE_CURVE ( 'NONE', #158, #142, #276, .T. ) ;
#48 = EDGE_CURVE ( 'NONE', #95, #37, #263, .T. ) ;
#49 = DIRECTION ( 'NONE',  ( -0.000000000000000000, -1.000000000000000000, -0.000000000000000000 ) ) ;
#50 = FACE_OUTER_BOUND ( 'NONE', #51, .T. ) ;
#51 = EDGE_LOOP ( 'NONE', ( #52, #252, #271, #1 ) ) ;
#52 = ORIENTED_EDGE ( 'NONE', *, *, #192, .T. ) ;
#53 = EDGE_CURVE ( 'NONE', #178, #37, #200, .T. ) ;
#54 = DIRECTION ( 'NONE',  ( 0.000000000000000000, 0.000000000000000000, -1.000000000000000000 ) ) ;
#55 = DIRECTION ( 'NONE',  ( -0.000000000000000000, -1.000000000000000000, -0.000000000000000000 ) ) ;
#56 = CARTESIAN_POINT ( 'NONE',  ( 0.000000000000000000, 0.000000000000000000, 0.000000000000000000 ) ) ;
#57 = DIRECTION ( 'NONE',  ( 0.000000000000000000, 0.000000000000000000, -1.000000000000000000 ) ) ;
#58 = SHAPE_DEFINITION_REPRESENTATION ( #234, #136 ) ;
#59 = DIRECTION ( 'NONE',  ( 0.000000000000000000, -1.000000000000000000, -0.000000000000000000 ) ) ;
#60 = DIRECTION ( 'NONE',  ( -0.000000000000000000, -1.000000000000000000, -0.000000000000000000 ) ) ;
#61 = EDGE_LOOP ( 'NONE', ( #170, #225 ) ) ;
#62 = ADVANCED_FACE ( 'NONE', ( #73 ), #269, .T. ) ;
#63 = PRESENTATION_LAYER_ASSIGNMENT (  '', '', ( #216 ) ) ;
#64 = SURFACE_STYLE_USAGE ( .BOTH. , #288 ) ;
#65 = DIRECTION ( 'NONE',  ( 0.000000000000000000, -0.000000000000000000, 1.000000000000000000 ) ) ;
#66 = AXIS2_PLACEMENT_3D ( 'NONE', #255, #60, #259 ) ;
#67 = PRODUCT_CONTEXT ( 'NONE', #266, 'mechanical' ) ;
#68 = VERTEX_POINT ( 'NONE', #29 ) ;
#69 = EDGE_LOOP ( 'NONE', ( #133, #85, #242, #126 ) ) ;
#70 = FACE_OUTER_BOUND ( 'NONE', #20, .T. ) ;
#71 = DIRECTION ( 'NONE',  ( -0.000000000000000000, -1.000000000000000000, -0.000000000000000000 ) ) ;
#72 = AXIS2_PLACEMENT_3D ( 'NONE', #114, #49, #206 ) ;
#73 = FACE_OUTER_BOUND ( 'NONE', #111, .T. ) ;
#74 = ORIENTED_EDGE ( 'NONE', *, *, #192, .F. ) ;
#75 = ORIENTED_EDGE ( 'NONE', *, *, #296, .T. ) ;
#76 = DIRECTION ( 'NONE',  ( 0.000000000000000000, 0.000000000000000000, -1.000000000000000000 ) ) ;
#77 =( NAMED_UNIT ( * ) PLANE_ANGLE_UNIT ( ) SI_UNIT ( $, .RADIAN. ) );
#78 = CARTESIAN_POINT ( 'NONE',  ( 0.000000000000000000, 14.49999999999999822, 0.000000000000000000 ) ) ;
#79 = DIRECTION ( 'NONE',  ( 0.000000000000000000, 1.000000000000000000, 0.000000000000000000 ) ) ;
#80 = AXIS2_PLACEMENT_3D ( 'NONE', #246, #130, #245 ) ;
#81 = CARTESIAN_POINT ( 'NONE',  ( 0.000000000000000000, 6.000000000000000000, 0.000000000000000000 ) ) ;
#82 = CYLINDRICAL_SURFACE ( 'NONE', #124, 5.299999999999998934 ) ;
#83 = ORIENTED_EDGE ( 'NONE', *, *, #47, .F. ) ;
#84 = VERTEX_POINT ( 'NONE', #8 ) ;
#85 = ORIENTED_EDGE ( 'NONE', *, *, #53, .T. ) ;
#86 = COLOUR_RGB ( '',0.7921568627450980005, 0.8196078431372548767, 0.9333333333333333481 ) ;
#87 = DIRECTION ( 'NONE',  ( 0.000000000000000000, 0.000000000000000000, -1.000000000000000000 ) ) ;
#88 = CIRCLE ( 'NONE', #104, 5.299999999999999822 ) ;
#89 = AXIS2_PLACEMENT_3D ( 'NONE', #237, #189, #125 ) ;
#90 = EDGE_CURVE ( 'NONE', #293, #300, #97, .T. ) ;
#91 = DIRECTION ( 'NONE',  ( -0.000000000000000000, -1.000000000000000000, -0.000000000000000000 ) ) ;
#92 = AXIS2_PLACEMENT_3D ( 'NONE', #56, #119, #273 ) ;
#93 = CARTESIAN_POINT ( 'NONE',  ( 0.000000000000000000, 0.000000000000000000, -2.549999999999999822 ) ) ;
#94 = CIRCLE ( 'NONE', #247, 2.549999999999999822 ) ;
#95 = VERTEX_POINT ( 'NONE', #279 ) ;
#96 = ORIENTED_EDGE ( 'NONE', *, *, #31, .F. ) ;
#97 = CIRCLE ( 'NONE', #66, 2.500000000000000000 ) ;
#98 = CARTESIAN_POINT ( 'NONE',  ( 0.000000000000000000, 0.000000000000000000, 0.000000000000000000 ) ) ;
#99 = CARTESIAN_POINT ( 'NONE',  ( 0.000000000000000000, 17.49999999999999645, -2.500000000000000000 ) ) ;
#100 = DIRECTION ( 'NONE',  ( -0.000000000000000000, -1.000000000000000000, -0.000000000000000000 ) ) ;
#101 = DIRECTION ( 'NONE',  ( -0.000000000000000000, -1.000000000000000000, -0.000000000000000000 ) ) ;
#102 = VECTOR ( 'NONE', #250, 1000.000000000000000 ) ;
#103 = ORIENTED_EDGE ( 'NONE', *, *, #90, .F. ) ;
#104 = AXIS2_PLACEMENT_3D ( 'NONE', #81, #101, #148 ) ;
#105 = STYLED_ITEM ( 'NONE', ( #22 ), #136 ) ;
#106 = CARTESIAN_POINT ( 'NONE',  ( 0.000000000000000000, 14.49999999999999822, 0.000000000000000000 ) ) ;
#107 =( LENGTH_UNIT ( ) NAMED_UNIT ( * ) SI_UNIT ( .MILLI., .METRE. ) );
#108 = DIRECTION ( 'NONE',  ( 1.000000000000000000, 0.000000000000000000, 0.000000000000000000 ) ) ;
#109 = AXIS2_PLACEMENT_3D ( 'NONE', #5, #100, #281 ) ;
#110 = CIRCLE ( 'NONE', #232, 5.299999999999998934 ) ;
#111 = EDGE_LOOP ( 'NONE', ( #240, #45, #118, #270 ) ) ;
#112 = ORIENTED_EDGE ( 'NONE', *, *, #40, .F. ) ;
#113 = ADVANCED_FACE ( 'NONE', ( #248 ), #175, .T. ) ;
#114 = CARTESIAN_POINT ( 'NONE',  ( 0.000000000000000000, 0.000000000000000000, 0.000000000000000000 ) ) ;
#115 = UNCERTAINTY_MEASURE_WITH_UNIT (LENGTH_MEASURE( 1.000000000000000082E-05 ), #28, 'distance_accuracy_value', 'NONE');
#116 = CIRCLE ( 'NONE', #180, 2.499999999999999112 ) ;
#117 = SURFACE_STYLE_USAGE ( .BOTH. , #243 ) ;
#118 = ORIENTED_EDGE ( 'NONE', *, *, #238, .T. ) ;
#119 = DIRECTION ( 'NONE',  ( -0.000000000000000000, -1.000000000000000000, -0.000000000000000000 ) ) ;
#120 =( NAMED_UNIT ( * ) SI_UNIT ( $, .STERADIAN. ) SOLID_ANGLE_UNIT ( ) );
#121 = DIRECTION ( 'NONE',  ( 0.000000000000000000, 0.000000000000000000, -1.000000000000000000 ) ) ;
#122 = CARTESIAN_POINT ( 'NONE',  ( 3.122849337825750419E-16, 0.000000000000000000, 2.549999999999999822 ) ) ;
#123 = DIRECTION ( 'NONE',  ( -0.000000000000000000, -1.000000000000000000, -0.000000000000000000 ) ) ;
#124 = AXIS2_PLACEMENT_3D ( 'NONE', #137, #91, #274 ) ;
#125 = DIRECTION ( 'NONE',  ( 0.000000000000000000, 0.000000000000000000, -1.000000000000000000 ) ) ;
#126 = ORIENTED_EDGE ( 'NONE', *, *, #238, .F. ) ;
#127 = ORIENTED_EDGE ( 'NONE', *, *, #156, .T. ) ;
#128 = FILL_AREA_STYLE ('',( #220 ) ) ;
#129 = CARTESIAN_POINT ( 'NONE',  ( 0.000000000000000000, 0.000000000000000000, 0.000000000000000000 ) ) ;
#130 = DIRECTION ( 'NONE',  ( -0.000000000000000000, -1.000000000000000000, -0.000000000000000000 ) ) ;
#131 = CYLINDRICAL_SURFACE ( 'NONE', #80, 2.499999999999999556 ) ;
#132 = MECHANICAL_DESIGN_GEOMETRIC_PRESENTATION_REPRESENTATION (  '', ( #105 ), #286 ) ;
#133 = ORIENTED_EDGE ( 'NONE', *, *, #204, .T. ) ;
#134 = ORIENTED_EDGE ( 'NONE', *, *, #90, .T. ) ;
#135 = ORIENTED_EDGE ( 'NONE', *, *, #210, .F. ) ;
#136 = ADVANCED_BREP_SHAPE_REPRESENTATION ( '638369383052206306', ( #215, #241 ), #23 ) ;
#137 = CARTESIAN_POINT ( 'NONE',  ( 0.000000000000000000, 0.000000000000000000, 0.000000000000000000 ) ) ;
#138 = EDGE_CURVE ( 'NONE', #84, #142, #262, .T. ) ;
#139 = CARTESIAN_POINT ( 'NONE',  ( 3.061616997868382155E-16, 14.49999999999999822, 2.499999999999999112 ) ) ;
#140 = CIRCLE ( 'NONE', #92, 2.549999999999999822 ) ;
#141 = VECTOR ( 'NONE', #211, 1000.000000000000000 ) ;
#142 = VERTEX_POINT ( 'NONE', #196 ) ;
#143 = ORIENTED_EDGE ( 'NONE', *, *, #138, .T. ) ;
#144 = CARTESIAN_POINT ( 'NONE',  ( 0.000000000000000000, 0.000000000000000000, 0.000000000000000000 ) ) ;
#145 = PLANE ( 'NONE',  #209 ) ;
#146 = DIRECTION ( 'NONE',  ( -0.000000000000000000, -1.000000000000000000, -0.000000000000000000 ) ) ;
#147 = CARTESIAN_POINT ( 'NONE',  ( 0.000000000000000000, 0.000000000000000000, 0.000000000000000000 ) ) ;
#148 = DIRECTION ( 'NONE',  ( 0.000000000000000000, 0.000000000000000000, -1.000000000000000000 ) ) ;
#149 = LINE ( 'NONE', #182, #25 ) ;
#150 = VERTEX_POINT ( 'NONE', #172 ) ;
#151 = DIRECTION ( 'NONE',  ( -0.000000000000000000, -1.000000000000000000, -0.000000000000000000 ) ) ;
#152 = ADVANCED_FACE ( 'NONE', ( #34 ), #131, .T. ) ;
#153 =( NAMED_UNIT ( * ) SI_UNIT ( $, .STERADIAN. ) SOLID_ANGLE_UNIT ( ) );
#154 = ADVANCED_FACE ( 'NONE', ( #10, #168 ), #194, .T. ) ;
#155 =( LENGTH_UNIT ( ) NAMED_UNIT ( * ) SI_UNIT ( .MILLI., .METRE. ) );
#156 = EDGE_CURVE ( 'NONE', #37, #95, #140, .T. ) ;
#157 = CYLINDRICAL_SURFACE ( 'NONE', #72, 2.499999999999999556 ) ;
#158 = VERTEX_POINT ( 'NONE', #299 ) ;
#159 = ORIENTED_EDGE ( 'NONE', *, *, #249, .F. ) ;
#160 = DIRECTION ( 'NONE',  ( 0.000000000000000000, 0.000000000000000000, -1.000000000000000000 ) ) ;
#161 = CYLINDRICAL_SURFACE ( 'NONE', #24, 5.299999999999998934 ) ;
#162 = ORIENTED_EDGE ( 'NONE', *, *, #47, .T. ) ;
#163 = VERTEX_POINT ( 'NONE', #139 ) ;
#164 = DIRECTION ( 'NONE',  ( 0.000000000000000000, 0.000000000000000000, -1.000000000000000000 ) ) ;
#165 = CARTESIAN_POINT ( 'NONE',  ( 0.000000000000000000, 14.49999999999999822, -2.499999999999999112 ) ) ;
#166 = PLANE ( 'NONE',  #228 ) ;
#167 = DIRECTION ( 'NONE',  ( -0.000000000000000000, -1.000000000000000000, -0.000000000000000000 ) ) ;
#168 = FACE_OUTER_BOUND ( 'NONE', #284, .T. ) ;
#169 = AXIS2_PLACEMENT_3D ( 'NONE', #258, #71, #280 ) ;
#170 = ORIENTED_EDGE ( 'NONE', *, *, #40, .T. ) ;
#171 = PRODUCT_DEFINITION ( 'UNKNOWN', '', #177, #19 ) ;
#172 = CARTESIAN_POINT ( 'NONE',  ( 0.000000000000000000, 6.000000000000000000, -2.549999999999999822 ) ) ;
#173 = SURFACE_STYLE_FILL_AREA ( #174 ) ;
#174 = FILL_AREA_STYLE ('',( #236 ) ) ;
#175 = CYLINDRICAL_SURFACE ( 'NONE', #89, 2.549999999999999822 ) ;
#176 =( NAMED_UNIT ( * ) SI_UNIT ( $, .STERADIAN. ) SOLID_ANGLE_UNIT ( ) );
#177 = PRODUCT_DEFINITION_FORMATION_WITH_SPECIFIED_SOURCE ( 'ANY', '', #205, .NOT_KNOWN. ) ;
#178 = VERTEX_POINT ( 'NONE', #229 ) ;
#179 = CARTESIAN_POINT ( 'NONE',  ( 0.000000000000000000, 6.000000000000000000, 0.000000000000000000 ) ) ;
#180 = AXIS2_PLACEMENT_3D ( 'NONE', #106, #151, #39 ) ;
#181 = ORIENTED_EDGE ( 'NONE', *, *, #254, .T. ) ;
#182 = CARTESIAN_POINT ( 'NONE',  ( 6.490628035480970938E-16, 0.000000000000000000, 5.299999999999998934 ) ) ;
#183 = CARTESIAN_POINT ( 'NONE',  ( 3.061616997868382648E-16, 0.000000000000000000, 2.499999999999999556 ) ) ;
#184 = DIRECTION ( 'NONE',  ( -0.000000000000000000, -1.000000000000000000, -0.000000000000000000 ) ) ;
#185 = DIRECTION ( 'NONE',  ( 0.000000000000000000, 0.000000000000000000, -1.000000000000000000 ) ) ;
#186 = ORIENTED_EDGE ( 'NONE', *, *, #48, .T. ) ;
#187 = CARTESIAN_POINT ( 'NONE',  ( 0.000000000000000000, 0.000000000000000000, -2.499999999999999556 ) ) ;
#188 = UNCERTAINTY_MEASURE_WITH_UNIT (LENGTH_MEASURE( 1.000000000000000082E-05 ), #107, 'distance_accuracy_value', 'NONE');
#189 = DIRECTION ( 'NONE',  ( -0.000000000000000000, -1.000000000000000000, -0.000000000000000000 ) ) ;
#190 = EDGE_LOOP ( 'NONE', ( #203, #201 ) ) ;
#191 = AXIS2_PLACEMENT_3D ( 'NONE', #212, #79, #253 ) ;
#192 = EDGE_CURVE ( 'NONE', #84, #68, #110, .T. ) ;
#193 = DIRECTION ( 'NONE',  ( -0.000000000000000000, -1.000000000000000000, -0.000000000000000000 ) ) ;
#194 = PLANE ( 'NONE',  #277 ) ;
#195 = ADVANCED_FACE ( 'NONE', ( #50 ), #82, .T. ) ;
#196 = CARTESIAN_POINT ( 'NONE',  ( 0.000000000000000000, 6.000000000000000000, -5.299999999999999822 ) ) ;
#197 = ADVANCED_FACE ( 'NONE', ( #283 ), #157, .T. ) ;
#198 = APPLICATION_PROTOCOL_DEFINITION ( 'draft international standard', 'automotive_design', 1998, #266 ) ;
#199 = AXIS2_PLACEMENT_3D ( 'NONE', #78, #146, #121 ) ;
#200 = LINE ( 'NONE', #256, #141 ) ;
#201 = ORIENTED_EDGE ( 'NONE', *, *, #18, .F. ) ;
#202 = ORIENTED_EDGE ( 'NONE', *, *, #44, .F. ) ;
#203 = ORIENTED_EDGE ( 'NONE', *, *, #204, .F. ) ;
#204 = EDGE_CURVE ( 'NONE', #150, #178, #94, .T. ) ;
#205 = PRODUCT ( '638369383052206306', '638369383052206306', '', ( #67 ) ) ;
#206 = DIRECTION ( 'NONE',  ( 0.000000000000000000, 0.000000000000000000, -1.000000000000000000 ) ) ;
#207 = CIRCLE ( 'NONE', #199, 2.499999999999999112 ) ;
#208 = EDGE_LOOP ( 'NONE', ( #134, #75, #112, #96 ) ) ;
#209 = AXIS2_PLACEMENT_3D ( 'NONE', #257, #59, #185 ) ;
#210 = EDGE_CURVE ( 'NONE', #163, #43, #116, .T. ) ;
#211 = DIRECTION ( 'NONE',  ( -0.000000000000000000, -1.000000000000000000, -0.000000000000000000 ) ) ;
#212 = CARTESIAN_POINT ( 'NONE',  ( 2.500000000000000000, 17.49999999999999645, 0.000000000000000000 ) ) ;
#213 = DIRECTION ( 'NONE',  ( -0.000000000000000000, -1.000000000000000000, -0.000000000000000000 ) ) ;
#214 = CARTESIAN_POINT ( 'NONE',  ( 3.061616997868383141E-16, 17.49999999999999645, 2.500000000000000000 ) ) ;
#215 = MANIFOLD_SOLID_BREP ( 'Révolution3', #36 ) ;
#216 = STYLED_ITEM ( 'NONE', ( #268 ), #215 ) ;
#217 = CIRCLE ( 'NONE', #169, 2.549999999999999822 ) ;
#218 = ORIENTED_EDGE ( 'NONE', *, *, #31, .T. ) ;
#219 = ADVANCED_FACE ( 'NONE', ( #297 ), #161, .T. ) ;
#220 = FILL_AREA_STYLE_COLOUR ( '', #42 ) ;
#221 = CARTESIAN_POINT ( 'NONE',  ( 5.299999999999998934, 14.49999999999999822, 0.000000000000000000 ) ) ;
#222 = DIRECTION ( 'NONE',  ( -0.000000000000000000, -1.000000000000000000, -0.000000000000000000 ) ) ;
#223 =( NAMED_UNIT ( * ) PLANE_ANGLE_UNIT ( ) SI_UNIT ( $, .RADIAN. ) );
#224 = VECTOR ( 'NONE', #222, 1000.000000000000000 ) ;
#225 = ORIENTED_EDGE ( 'NONE', *, *, #210, .T. ) ;
#226 = APPLICATION_CONTEXT ( 'automotive_design' ) ;
#227 = EDGE_LOOP ( 'NONE', ( #26, #162 ) ) ;
#228 = AXIS2_PLACEMENT_3D ( 'NONE', #144, #3, #164 ) ;
#229 = CARTESIAN_POINT ( 'NONE',  ( 3.122849337825750419E-16, 6.000000000000000000, 2.549999999999999822 ) ) ;
#230 = LINE ( 'NONE', #93, #102 ) ;
#231 = CARTESIAN_POINT ( 'NONE',  ( 0.000000000000000000, 14.50000000000000000, 0.000000000000000000 ) ) ;
#232 = AXIS2_PLACEMENT_3D ( 'NONE', #231, #298, #160 ) ;
#233 = ORIENTED_EDGE ( 'NONE', *, *, #254, .F. ) ;
#234 = PRODUCT_DEFINITION_SHAPE ( 'NONE', 'NONE',  #171 ) ;
#235 = DIRECTION ( 'NONE',  ( -0.000000000000000000, -1.000000000000000000, -0.000000000000000000 ) ) ;
#236 = FILL_AREA_STYLE_COLOUR ( '', #86 ) ;
#237 = CARTESIAN_POINT ( 'NONE',  ( 0.000000000000000000, 0.000000000000000000, 0.000000000000000000 ) ) ;
#238 = EDGE_CURVE ( 'NONE', #150, #95, #230, .T. ) ;
#239 = CARTESIAN_POINT ( 'NONE',  ( 0.000000000000000000, 6.000000000000000000, 0.000000000000000000 ) ) ;
#240 = ORIENTED_EDGE ( 'NONE', *, *, #53, .F. ) ;
#241 = AXIS2_PLACEMENT_3D ( 'NONE', #41, #292, #108 ) ;
#242 = ORIENTED_EDGE ( 'NONE', *, *, #48, .F. ) ;
#243 = SURFACE_SIDE_STYLE ('',( #173 ) ) ;
#244 = FACE_BOUND ( 'NONE', #190, .T. ) ;
#245 = DIRECTION ( 'NONE',  ( 0.000000000000000000, 0.000000000000000000, -1.000000000000000000 ) ) ;
#246 = CARTESIAN_POINT ( 'NONE',  ( 0.000000000000000000, 0.000000000000000000, 0.000000000000000000 ) ) ;
#247 = AXIS2_PLACEMENT_3D ( 'NONE', #179, #193, #87 ) ;
#248 = FACE_OUTER_BOUND ( 'NONE', #69, .T. ) ;
#249 = EDGE_CURVE ( 'NONE', #300, #293, #291, .T. ) ;
#250 = DIRECTION ( 'NONE',  ( -0.000000000000000000, -1.000000000000000000, -0.000000000000000000 ) ) ;
#251 = VECTOR ( 'NONE', #213, 1000.000000000000000 ) ;
#252 = ORIENTED_EDGE ( 'NONE', *, *, #44, .T. ) ;
#253 = DIRECTION ( 'NONE',  ( 0.000000000000000000, -0.000000000000000000, 1.000000000000000000 ) ) ;
#254 = EDGE_CURVE ( 'NONE', #68, #84, #11, .T. ) ;
#255 = CARTESIAN_POINT ( 'NONE',  ( 0.000000000000000000, 17.49999999999999645, 0.000000000000000000 ) ) ;
#256 = CARTESIAN_POINT ( 'NONE',  ( 3.122849337825750419E-16, 0.000000000000000000, 2.549999999999999822 ) ) ;
#257 = CARTESIAN_POINT ( 'NONE',  ( 2.549999999999999822, 6.000000000000000000, 0.000000000000000000 ) ) ;
#258 = CARTESIAN_POINT ( 'NONE',  ( 0.000000000000000000, 6.000000000000000000, 0.000000000000000000 ) ) ;
#259 = DIRECTION ( 'NONE',  ( 0.000000000000000000, 0.000000000000000000, -1.000000000000000000 ) ) ;
#260 =( GEOMETRIC_REPRESENTATION_CONTEXT ( 3 ) GLOBAL_UNCERTAINTY_ASSIGNED_CONTEXT ( ( #188 ) ) GLOBAL_UNIT_ASSIGNED_CONTEXT ( ( #107, #265, #153 ) ) REPRESENTATION_CONTEXT ( 'NONE', 'WORKASPACE' ) );
#261 = ADVANCED_FACE ( 'NONE', ( #70 ), #30, .T. ) ;
#262 = LINE ( 'NONE', #15, #224 ) ;
#263 = CIRCLE ( 'NONE', #267, 2.549999999999999822 ) ;
#264 = DIRECTION ( 'NONE',  ( -0.000000000000000000, -1.000000000000000000, -0.000000000000000000 ) ) ;
#265 =( NAMED_UNIT ( * ) PLANE_ANGLE_UNIT ( ) SI_UNIT ( $, .RADIAN. ) );
#266 = APPLICATION_CONTEXT ( 'automotive_design' ) ;
#267 = AXIS2_PLACEMENT_3D ( 'NONE', #147, #184, #32 ) ;
#268 = PRESENTATION_STYLE_ASSIGNMENT (( #64 ) ) ;
#269 = CYLINDRICAL_SURFACE ( 'NONE', #294, 2.549999999999999822 ) ;
#270 = ORIENTED_EDGE ( 'NONE', *, *, #156, .F. ) ;
#271 = ORIENTED_EDGE ( 'NONE', *, *, #16, .F. ) ;
#272 = VECTOR ( 'NONE', #55, 1000.000000000000000 ) ;
#273 = DIRECTION ( 'NONE',  ( 0.000000000000000000, 0.000000000000000000, -1.000000000000000000 ) ) ;
#274 = DIRECTION ( 'NONE',  ( 0.000000000000000000, 0.000000000000000000, -1.000000000000000000 ) ) ;
#275 = SURFACE_STYLE_FILL_AREA ( #128 ) ;
#276 = CIRCLE ( 'NONE', #33, 5.299999999999999822 ) ;
#277 = AXIS2_PLACEMENT_3D ( 'NONE', #221, #289, #65 ) ;
#278 = ORIENTED_EDGE ( 'NONE', *, *, #296, .F. ) ;
#279 = CARTESIAN_POINT ( 'NONE',  ( 0.000000000000000000, 0.000000000000000000, -2.549999999999999822 ) ) ;
#280 = DIRECTION ( 'NONE',  ( 0.000000000000000000, 0.000000000000000000, -1.000000000000000000 ) ) ;
#281 = DIRECTION ( 'NONE',  ( 0.000000000000000000, 0.000000000000000000, -1.000000000000000000 ) ) ;
#282 = MECHANICAL_DESIGN_GEOMETRIC_PRESENTATION_REPRESENTATION (  '', ( #216 ), #260 ) ;
#283 = FACE_OUTER_BOUND ( 'NONE', #27, .T. ) ;
#284 = EDGE_LOOP ( 'NONE', ( #74, #233 ) ) ;
#285 = EDGE_LOOP ( 'NONE', ( #202, #181, #143, #83 ) ) ;
#286 =( GEOMETRIC_REPRESENTATION_CONTEXT ( 3 ) GLOBAL_UNCERTAINTY_ASSIGNED_CONTEXT ( ( #17 ) ) GLOBAL_UNIT_ASSIGNED_CONTEXT ( ( #155, #223, #176 ) ) REPRESENTATION_CONTEXT ( 'NONE', 'WORKASPACE' ) );
#287 = ADVANCED_FACE ( 'NONE', ( #4, #244 ), #145, .T. ) ;
#288 = SURFACE_SIDE_STYLE ('',( #275 ) ) ;
#289 = DIRECTION ( 'NONE',  ( 0.000000000000000000, 1.000000000000000000, 0.000000000000000000 ) ) ;
#290 = APPLICATION_PROTOCOL_DEFINITION ( 'draft international standard', 'automotive_design', 1998, #226 ) ;
#291 = CIRCLE ( 'NONE', #109, 2.500000000000000000 ) ;
#292 = DIRECTION ( 'NONE',  ( 0.000000000000000000, 0.000000000000000000, 1.000000000000000000 ) ) ;
#293 = VERTEX_POINT ( 'NONE', #99 ) ;
#294 = AXIS2_PLACEMENT_3D ( 'NONE', #98, #6, #76 ) ;
#295 = ADVANCED_FACE ( 'NONE', ( #46 ), #166, .T. ) ;
#296 = EDGE_CURVE ( 'NONE', #300, #163, #14, .T. ) ;
#297 = FACE_OUTER_BOUND ( 'NONE', #285, .T. ) ;
#298 = DIRECTION ( 'NONE',  ( -0.000000000000000000, -1.000000000000000000, -0.000000000000000000 ) ) ;
#299 = CARTESIAN_POINT ( 'NONE',  ( 6.490628035480971924E-16, 6.000000000000000000, 5.299999999999999822 ) ) ;
#300 = VERTEX_POINT ( 'NONE', #214 ) ;
ENDSEC;
END-ISO-10303-21;
