ISO-10303-21;
HEADER;
/* Generated by software containing ST-Developer
 * from STEP Tools, Inc. (www.steptools.com) 
 */

FILE_DESCRIPTION(
/* description */ (''),
/* implementation_level */ '2;1');

FILE_NAME(
/* name */ 'Base Acier 4 parties def v2.step',
/* time_stamp */ '2023-12-12T21:46:36+01:00',
/* author */ (''),
/* organization */ (''),
/* preprocessor_version */ 'ST-DEVELOPER v20',
/* originating_system */ 'Autodesk Translation Framework v12.14.0.127',

/* authorisation */ '');

FILE_SCHEMA (('AUTOMOTIVE_DESIGN { 1 0 10303 214 3 1 1 }'));
ENDSEC;

DATA;
#10=MECHANICAL_DESIGN_GEOMETRIC_PRESENTATION_REPRESENTATION('',(#17),#391);
#11=ITEM_DEFINED_TRANSFORMATION($,$,#227,#257);
#12=(
REPRESENTATION_RELATIONSHIP($,$,#402,#401)
REPRESENTATION_RELATIONSHIP_WITH_TRANSFORMATION(#11)
SHAPE_REPRESENTATION_RELATIONSHIP()
);
#13=CONTEXT_DEPENDENT_SHAPE_REPRESENTATION(#12,#400);
#14=NEXT_ASSEMBLY_USAGE_OCCURRENCE('Base Acier:1','Base Acier:1',
'Base Acier:1',#404,#405,'Base Acier:1');
#15=SHAPE_REPRESENTATION_RELATIONSHIP('SRR','None',#402,#16);
#16=ADVANCED_BREP_SHAPE_REPRESENTATION('',(#18),#390);
#17=STYLED_ITEM('',(#415),#18);
#18=MANIFOLD_SOLID_BREP('Corps1',#213);
#19=FACE_BOUND('',#52,.T.);
#20=FACE_BOUND('',#53,.T.);
#21=FACE_BOUND('',#54,.T.);
#22=FACE_BOUND('',#55,.T.);
#23=FACE_BOUND('',#57,.T.);
#24=FACE_BOUND('',#59,.T.);
#25=FACE_BOUND('',#66,.T.);
#26=FACE_BOUND('',#68,.T.);
#27=FACE_BOUND('',#69,.T.);
#28=FACE_BOUND('',#70,.T.);
#29=FACE_BOUND('',#71,.T.);
#30=PLANE('',#237);
#31=PLANE('',#240);
#32=PLANE('',#242);
#33=PLANE('',#255);
#34=PLANE('',#256);
#35=FACE_OUTER_BOUND('',#48,.T.);
#36=FACE_OUTER_BOUND('',#49,.T.);
#37=FACE_OUTER_BOUND('',#50,.T.);
#38=FACE_OUTER_BOUND('',#51,.T.);
#39=FACE_OUTER_BOUND('',#56,.T.);
#40=FACE_OUTER_BOUND('',#58,.T.);
#41=FACE_OUTER_BOUND('',#60,.T.);
#42=FACE_OUTER_BOUND('',#61,.T.);
#43=FACE_OUTER_BOUND('',#62,.T.);
#44=FACE_OUTER_BOUND('',#63,.T.);
#45=FACE_OUTER_BOUND('',#64,.T.);
#46=FACE_OUTER_BOUND('',#65,.T.);
#47=FACE_OUTER_BOUND('',#67,.T.);
#48=EDGE_LOOP('',(#144,#145,#146,#147));
#49=EDGE_LOOP('',(#148,#149,#150,#151));
#50=EDGE_LOOP('',(#152,#153,#154,#155));
#51=EDGE_LOOP('',(#156));
#52=EDGE_LOOP('',(#157));
#53=EDGE_LOOP('',(#158));
#54=EDGE_LOOP('',(#159));
#55=EDGE_LOOP('',(#160));
#56=EDGE_LOOP('',(#161));
#57=EDGE_LOOP('',(#162));
#58=EDGE_LOOP('',(#163));
#59=EDGE_LOOP('',(#164));
#60=EDGE_LOOP('',(#165,#166,#167,#168));
#61=EDGE_LOOP('',(#169,#170,#171,#172));
#62=EDGE_LOOP('',(#173,#174,#175,#176));
#63=EDGE_LOOP('',(#177,#178,#179,#180));
#64=EDGE_LOOP('',(#181,#182,#183,#184));
#65=EDGE_LOOP('',(#185));
#66=EDGE_LOOP('',(#186));
#67=EDGE_LOOP('',(#187));
#68=EDGE_LOOP('',(#188));
#69=EDGE_LOOP('',(#189));
#70=EDGE_LOOP('',(#190));
#71=EDGE_LOOP('',(#191));
#72=LINE('',#336,#80);
#73=LINE('',#342,#81);
#74=LINE('',#348,#82);
#75=LINE('',#365,#83);
#76=LINE('',#370,#84);
#77=LINE('',#374,#85);
#78=LINE('',#378,#86);
#79=LINE('',#382,#87);
#80=VECTOR('',#266,15.);
#81=VECTOR('',#273,15.);
#82=VECTOR('',#280,15.);
#83=VECTOR('',#301,5.24999999999999);
#84=VECTOR('',#308,5.25);
#85=VECTOR('',#313,5.25);
#86=VECTOR('',#318,20.);
#87=VECTOR('',#323,64.75);
#88=CIRCLE('',#229,15.);
#89=CIRCLE('',#230,15.);
#90=CIRCLE('',#232,15.);
#91=CIRCLE('',#233,15.);
#92=CIRCLE('',#235,15.);
#93=CIRCLE('',#236,15.);
#94=CIRCLE('',#238,64.75);
#95=CIRCLE('',#239,20.);
#96=CIRCLE('',#241,5.25);
#97=CIRCLE('',#243,5.25);
#98=CIRCLE('',#245,5.24999999999999);
#99=CIRCLE('',#246,5.24999999999999);
#100=CIRCLE('',#248,5.25);
#101=CIRCLE('',#250,5.25);
#102=CIRCLE('',#252,20.);
#103=CIRCLE('',#254,64.75);
#104=VERTEX_POINT('',#333);
#105=VERTEX_POINT('',#335);
#106=VERTEX_POINT('',#339);
#107=VERTEX_POINT('',#341);
#108=VERTEX_POINT('',#345);
#109=VERTEX_POINT('',#347);
#110=VERTEX_POINT('',#351);
#111=VERTEX_POINT('',#353);
#112=VERTEX_POINT('',#356);
#113=VERTEX_POINT('',#359);
#114=VERTEX_POINT('',#362);
#115=VERTEX_POINT('',#364);
#116=VERTEX_POINT('',#368);
#117=VERTEX_POINT('',#372);
#118=VERTEX_POINT('',#376);
#119=VERTEX_POINT('',#380);
#120=EDGE_CURVE('',#104,#104,#88,.T.);
#121=EDGE_CURVE('',#104,#105,#72,.T.);
#122=EDGE_CURVE('',#105,#105,#89,.T.);
#123=EDGE_CURVE('',#106,#106,#90,.T.);
#124=EDGE_CURVE('',#106,#107,#73,.T.);
#125=EDGE_CURVE('',#107,#107,#91,.T.);
#126=EDGE_CURVE('',#108,#108,#92,.T.);
#127=EDGE_CURVE('',#108,#109,#74,.T.);
#128=EDGE_CURVE('',#109,#109,#93,.T.);
#129=EDGE_CURVE('',#110,#110,#94,.T.);
#130=EDGE_CURVE('',#111,#111,#95,.T.);
#131=EDGE_CURVE('',#112,#112,#96,.T.);
#132=EDGE_CURVE('',#113,#113,#97,.T.);
#133=EDGE_CURVE('',#114,#114,#98,.T.);
#134=EDGE_CURVE('',#114,#115,#75,.T.);
#135=EDGE_CURVE('',#115,#115,#99,.T.);
#136=EDGE_CURVE('',#116,#116,#100,.T.);
#137=EDGE_CURVE('',#116,#113,#76,.T.);
#138=EDGE_CURVE('',#117,#117,#101,.T.);
#139=EDGE_CURVE('',#117,#112,#77,.T.);
#140=EDGE_CURVE('',#118,#118,#102,.T.);
#141=EDGE_CURVE('',#118,#111,#78,.T.);
#142=EDGE_CURVE('',#119,#119,#103,.T.);
#143=EDGE_CURVE('',#119,#110,#79,.T.);
#144=ORIENTED_EDGE('',*,*,#120,.F.);
#145=ORIENTED_EDGE('',*,*,#121,.T.);
#146=ORIENTED_EDGE('',*,*,#122,.F.);
#147=ORIENTED_EDGE('',*,*,#121,.F.);
#148=ORIENTED_EDGE('',*,*,#123,.F.);
#149=ORIENTED_EDGE('',*,*,#124,.T.);
#150=ORIENTED_EDGE('',*,*,#125,.F.);
#151=ORIENTED_EDGE('',*,*,#124,.F.);
#152=ORIENTED_EDGE('',*,*,#126,.F.);
#153=ORIENTED_EDGE('',*,*,#127,.T.);
#154=ORIENTED_EDGE('',*,*,#128,.F.);
#155=ORIENTED_EDGE('',*,*,#127,.F.);
#156=ORIENTED_EDGE('',*,*,#129,.T.);
#157=ORIENTED_EDGE('',*,*,#130,.T.);
#158=ORIENTED_EDGE('',*,*,#126,.T.);
#159=ORIENTED_EDGE('',*,*,#123,.T.);
#160=ORIENTED_EDGE('',*,*,#120,.T.);
#161=ORIENTED_EDGE('',*,*,#128,.T.);
#162=ORIENTED_EDGE('',*,*,#131,.F.);
#163=ORIENTED_EDGE('',*,*,#125,.T.);
#164=ORIENTED_EDGE('',*,*,#132,.F.);
#165=ORIENTED_EDGE('',*,*,#133,.F.);
#166=ORIENTED_EDGE('',*,*,#134,.T.);
#167=ORIENTED_EDGE('',*,*,#135,.T.);
#168=ORIENTED_EDGE('',*,*,#134,.F.);
#169=ORIENTED_EDGE('',*,*,#136,.F.);
#170=ORIENTED_EDGE('',*,*,#137,.T.);
#171=ORIENTED_EDGE('',*,*,#132,.T.);
#172=ORIENTED_EDGE('',*,*,#137,.F.);
#173=ORIENTED_EDGE('',*,*,#138,.F.);
#174=ORIENTED_EDGE('',*,*,#139,.T.);
#175=ORIENTED_EDGE('',*,*,#131,.T.);
#176=ORIENTED_EDGE('',*,*,#139,.F.);
#177=ORIENTED_EDGE('',*,*,#140,.F.);
#178=ORIENTED_EDGE('',*,*,#141,.T.);
#179=ORIENTED_EDGE('',*,*,#130,.F.);
#180=ORIENTED_EDGE('',*,*,#141,.F.);
#181=ORIENTED_EDGE('',*,*,#142,.F.);
#182=ORIENTED_EDGE('',*,*,#143,.T.);
#183=ORIENTED_EDGE('',*,*,#129,.F.);
#184=ORIENTED_EDGE('',*,*,#143,.F.);
#185=ORIENTED_EDGE('',*,*,#122,.T.);
#186=ORIENTED_EDGE('',*,*,#135,.F.);
#187=ORIENTED_EDGE('',*,*,#142,.T.);
#188=ORIENTED_EDGE('',*,*,#140,.T.);
#189=ORIENTED_EDGE('',*,*,#138,.T.);
#190=ORIENTED_EDGE('',*,*,#136,.T.);
#191=ORIENTED_EDGE('',*,*,#133,.T.);
#192=CYLINDRICAL_SURFACE('',#228,15.);
#193=CYLINDRICAL_SURFACE('',#231,15.);
#194=CYLINDRICAL_SURFACE('',#234,15.);
#195=CYLINDRICAL_SURFACE('',#244,5.24999999999999);
#196=CYLINDRICAL_SURFACE('',#247,5.25);
#197=CYLINDRICAL_SURFACE('',#249,5.25);
#198=CYLINDRICAL_SURFACE('',#251,20.);
#199=CYLINDRICAL_SURFACE('',#253,64.75);
#200=ADVANCED_FACE('',(#35),#192,.F.);
#201=ADVANCED_FACE('',(#36),#193,.F.);
#202=ADVANCED_FACE('',(#37),#194,.F.);
#203=ADVANCED_FACE('',(#38,#19,#20,#21,#22),#30,.T.);
#204=ADVANCED_FACE('',(#39,#23),#31,.T.);
#205=ADVANCED_FACE('',(#40,#24),#32,.T.);
#206=ADVANCED_FACE('',(#41),#195,.F.);
#207=ADVANCED_FACE('',(#42),#196,.F.);
#208=ADVANCED_FACE('',(#43),#197,.F.);
#209=ADVANCED_FACE('',(#44),#198,.F.);
#210=ADVANCED_FACE('',(#45),#199,.T.);
#211=ADVANCED_FACE('',(#46,#25),#33,.T.);
#212=ADVANCED_FACE('',(#47,#26,#27,#28,#29),#34,.F.);
#213=CLOSED_SHELL('',(#200,#201,#202,#203,#204,#205,#206,#207,#208,#209,
#210,#211,#212));
#214=DERIVED_UNIT_ELEMENT(#216,1.);
#215=DERIVED_UNIT_ELEMENT(#393,-3.);
#216=(
MASS_UNIT()
NAMED_UNIT(*)
SI_UNIT(.KILO.,.GRAM.)
);
#217=DERIVED_UNIT((#214,#215));
#218=MEASURE_REPRESENTATION_ITEM('density measure',
POSITIVE_RATIO_MEASURE(7850.),#217);
#219=PROPERTY_DEFINITION_REPRESENTATION(#224,#221);
#220=PROPERTY_DEFINITION_REPRESENTATION(#225,#222);
#221=REPRESENTATION('material name',(#223),#390);
#222=REPRESENTATION('density',(#218),#390);
#223=DESCRIPTIVE_REPRESENTATION_ITEM('Acier','Acier');
#224=PROPERTY_DEFINITION('material property','material name',#405);
#225=PROPERTY_DEFINITION('material property','density of part',#405);
#226=AXIS2_PLACEMENT_3D('',#330,#258,#259);
#227=AXIS2_PLACEMENT_3D('',#331,#260,#261);
#228=AXIS2_PLACEMENT_3D('',#332,#262,#263);
#229=AXIS2_PLACEMENT_3D('',#334,#264,#265);
#230=AXIS2_PLACEMENT_3D('',#337,#267,#268);
#231=AXIS2_PLACEMENT_3D('',#338,#269,#270);
#232=AXIS2_PLACEMENT_3D('',#340,#271,#272);
#233=AXIS2_PLACEMENT_3D('',#343,#274,#275);
#234=AXIS2_PLACEMENT_3D('',#344,#276,#277);
#235=AXIS2_PLACEMENT_3D('',#346,#278,#279);
#236=AXIS2_PLACEMENT_3D('',#349,#281,#282);
#237=AXIS2_PLACEMENT_3D('',#350,#283,#284);
#238=AXIS2_PLACEMENT_3D('',#352,#285,#286);
#239=AXIS2_PLACEMENT_3D('',#354,#287,#288);
#240=AXIS2_PLACEMENT_3D('',#355,#289,#290);
#241=AXIS2_PLACEMENT_3D('',#357,#291,#292);
#242=AXIS2_PLACEMENT_3D('',#358,#293,#294);
#243=AXIS2_PLACEMENT_3D('',#360,#295,#296);
#244=AXIS2_PLACEMENT_3D('',#361,#297,#298);
#245=AXIS2_PLACEMENT_3D('',#363,#299,#300);
#246=AXIS2_PLACEMENT_3D('',#366,#302,#303);
#247=AXIS2_PLACEMENT_3D('',#367,#304,#305);
#248=AXIS2_PLACEMENT_3D('',#369,#306,#307);
#249=AXIS2_PLACEMENT_3D('',#371,#309,#310);
#250=AXIS2_PLACEMENT_3D('',#373,#311,#312);
#251=AXIS2_PLACEMENT_3D('',#375,#314,#315);
#252=AXIS2_PLACEMENT_3D('',#377,#316,#317);
#253=AXIS2_PLACEMENT_3D('',#379,#319,#320);
#254=AXIS2_PLACEMENT_3D('',#381,#321,#322);
#255=AXIS2_PLACEMENT_3D('',#383,#324,#325);
#256=AXIS2_PLACEMENT_3D('',#384,#326,#327);
#257=AXIS2_PLACEMENT_3D('',#385,#328,#329);
#258=DIRECTION('axis',(0.,0.,1.));
#259=DIRECTION('refdir',(1.,0.,0.));
#260=DIRECTION('axis',(0.,0.,1.));
#261=DIRECTION('refdir',(1.,0.,0.));
#262=DIRECTION('center_axis',(0.,0.,1.));
#263=DIRECTION('ref_axis',(1.,0.,0.));
#264=DIRECTION('center_axis',(0.,0.,-1.));
#265=DIRECTION('ref_axis',(1.,0.,0.));
#266=DIRECTION('',(0.,0.,-1.));
#267=DIRECTION('center_axis',(0.,0.,1.));
#268=DIRECTION('ref_axis',(1.,0.,0.));
#269=DIRECTION('center_axis',(0.,0.,1.));
#270=DIRECTION('ref_axis',(1.,0.,0.));
#271=DIRECTION('center_axis',(0.,0.,-1.));
#272=DIRECTION('ref_axis',(1.,0.,0.));
#273=DIRECTION('',(0.,0.,-1.));
#274=DIRECTION('center_axis',(0.,0.,1.));
#275=DIRECTION('ref_axis',(1.,0.,0.));
#276=DIRECTION('center_axis',(0.,0.,1.));
#277=DIRECTION('ref_axis',(1.,0.,0.));
#278=DIRECTION('center_axis',(0.,0.,-1.));
#279=DIRECTION('ref_axis',(1.,0.,0.));
#280=DIRECTION('',(0.,0.,-1.));
#281=DIRECTION('center_axis',(0.,0.,1.));
#282=DIRECTION('ref_axis',(1.,0.,0.));
#283=DIRECTION('center_axis',(0.,0.,1.));
#284=DIRECTION('ref_axis',(1.,0.,0.));
#285=DIRECTION('center_axis',(0.,0.,1.));
#286=DIRECTION('ref_axis',(1.,0.,0.));
#287=DIRECTION('center_axis',(0.,0.,-1.));
#288=DIRECTION('ref_axis',(1.,0.,0.));
#289=DIRECTION('center_axis',(0.,0.,1.));
#290=DIRECTION('ref_axis',(1.,0.,0.));
#291=DIRECTION('center_axis',(0.,0.,1.));
#292=DIRECTION('ref_axis',(1.,0.,0.));
#293=DIRECTION('center_axis',(0.,0.,1.));
#294=DIRECTION('ref_axis',(1.,0.,0.));
#295=DIRECTION('center_axis',(0.,0.,1.));
#296=DIRECTION('ref_axis',(1.,0.,0.));
#297=DIRECTION('center_axis',(0.,0.,-1.));
#298=DIRECTION('ref_axis',(1.,0.,0.));
#299=DIRECTION('center_axis',(0.,0.,1.));
#300=DIRECTION('ref_axis',(1.,0.,0.));
#301=DIRECTION('',(0.,0.,1.));
#302=DIRECTION('center_axis',(0.,0.,1.));
#303=DIRECTION('ref_axis',(1.,0.,0.));
#304=DIRECTION('center_axis',(0.,0.,-1.));
#305=DIRECTION('ref_axis',(1.,0.,0.));
#306=DIRECTION('center_axis',(0.,0.,1.));
#307=DIRECTION('ref_axis',(1.,0.,0.));
#308=DIRECTION('',(0.,0.,1.));
#309=DIRECTION('center_axis',(0.,0.,-1.));
#310=DIRECTION('ref_axis',(1.,0.,0.));
#311=DIRECTION('center_axis',(0.,0.,1.));
#312=DIRECTION('ref_axis',(1.,0.,0.));
#313=DIRECTION('',(0.,0.,1.));
#314=DIRECTION('center_axis',(0.,0.,-1.));
#315=DIRECTION('ref_axis',(1.,0.,0.));
#316=DIRECTION('center_axis',(0.,0.,1.));
#317=DIRECTION('ref_axis',(1.,0.,0.));
#318=DIRECTION('',(0.,0.,1.));
#319=DIRECTION('center_axis',(0.,0.,-1.));
#320=DIRECTION('ref_axis',(1.,0.,0.));
#321=DIRECTION('center_axis',(0.,0.,-1.));
#322=DIRECTION('ref_axis',(1.,0.,0.));
#323=DIRECTION('',(0.,0.,1.));
#324=DIRECTION('center_axis',(0.,0.,1.));
#325=DIRECTION('ref_axis',(1.,0.,0.));
#326=DIRECTION('center_axis',(0.,0.,1.));
#327=DIRECTION('ref_axis',(1.,0.,0.));
#328=DIRECTION('',(0.,0.,1.));
#329=DIRECTION('',(1.,0.,0.));
#330=CARTESIAN_POINT('',(0.,0.,0.));
#331=CARTESIAN_POINT('',(0.,0.,0.));
#332=CARTESIAN_POINT('Origin',(38.7546368193536,22.375,0.));
#333=CARTESIAN_POINT('',(23.7546368193536,22.375,20.2));
#334=CARTESIAN_POINT('Origin',(38.7546368193536,22.375,20.2));
#335=CARTESIAN_POINT('',(23.7546368193536,22.375,0.));
#336=CARTESIAN_POINT('',(23.7546368193536,22.375,0.));
#337=CARTESIAN_POINT('Origin',(38.7546368193536,22.375,0.));
#338=CARTESIAN_POINT('Origin',(-38.7546368193536,22.375,0.));
#339=CARTESIAN_POINT('',(-53.7546368193536,22.375,20.2));
#340=CARTESIAN_POINT('Origin',(-38.7546368193536,22.375,20.2));
#341=CARTESIAN_POINT('',(-53.7546368193536,22.375,0.));
#342=CARTESIAN_POINT('',(-53.7546368193536,22.375,0.));
#343=CARTESIAN_POINT('Origin',(-38.7546368193536,22.375,0.));
#344=CARTESIAN_POINT('Origin',(0.,-44.75,0.));
#345=CARTESIAN_POINT('',(-15.,-44.75,20.2));
#346=CARTESIAN_POINT('Origin',(0.,-44.75,20.2));
#347=CARTESIAN_POINT('',(-15.,-44.75,0.));
#348=CARTESIAN_POINT('',(-15.,-44.75,0.));
#349=CARTESIAN_POINT('Origin',(0.,-44.75,0.));
#350=CARTESIAN_POINT('Origin',(0.,-12.9375,20.2));
#351=CARTESIAN_POINT('',(-64.75,7.92958802447911E-15,20.2));
#352=CARTESIAN_POINT('Origin',(0.,0.,20.2));
#353=CARTESIAN_POINT('',(-20.,2.44929359829471E-15,20.2));
#354=CARTESIAN_POINT('Origin',(0.,0.,20.2));
#355=CARTESIAN_POINT('Origin',(0.,-12.9375,0.));
#356=CARTESIAN_POINT('',(-5.25,-44.75,0.));
#357=CARTESIAN_POINT('Origin',(0.,-44.75,0.));
#358=CARTESIAN_POINT('Origin',(0.,-12.9375,0.));
#359=CARTESIAN_POINT('',(-44.0046368193536,22.375,0.));
#360=CARTESIAN_POINT('Origin',(-38.7546368193536,22.375,0.));
#361=CARTESIAN_POINT('Origin',(38.7546368193536,22.375,0.));
#362=CARTESIAN_POINT('',(33.5046368193536,22.375,-15.));
#363=CARTESIAN_POINT('Origin',(38.7546368193536,22.375,-15.));
#364=CARTESIAN_POINT('',(33.5046368193536,22.375,0.));
#365=CARTESIAN_POINT('',(33.5046368193536,22.375,0.));
#366=CARTESIAN_POINT('Origin',(38.7546368193536,22.375,0.));
#367=CARTESIAN_POINT('Origin',(-38.7546368193536,22.375,0.));
#368=CARTESIAN_POINT('',(-44.0046368193536,22.375,-15.));
#369=CARTESIAN_POINT('Origin',(-38.7546368193536,22.375,-15.));
#370=CARTESIAN_POINT('',(-44.0046368193536,22.375,0.));
#371=CARTESIAN_POINT('Origin',(0.,-44.75,0.));
#372=CARTESIAN_POINT('',(-5.25,-44.75,-15.));
#373=CARTESIAN_POINT('Origin',(0.,-44.75,-15.));
#374=CARTESIAN_POINT('',(-5.25,-44.75,0.));
#375=CARTESIAN_POINT('Origin',(0.,0.,0.));
#376=CARTESIAN_POINT('',(-20.,2.44929359829471E-15,-15.));
#377=CARTESIAN_POINT('Origin',(0.,0.,-15.));
#378=CARTESIAN_POINT('',(-20.,2.44929359829471E-15,0.));
#379=CARTESIAN_POINT('Origin',(0.,0.,0.));
#380=CARTESIAN_POINT('',(-64.75,7.92958802447911E-15,-15.));
#381=CARTESIAN_POINT('Origin',(0.,0.,-15.));
#382=CARTESIAN_POINT('',(-64.75,7.92958802447911E-15,0.));
#383=CARTESIAN_POINT('Origin',(0.,-12.9375,0.));
#384=CARTESIAN_POINT('Origin',(0.,-12.9375,-15.));
#385=CARTESIAN_POINT('',(0.,0.,0.));
#386=UNCERTAINTY_MEASURE_WITH_UNIT(LENGTH_MEASURE(0.01),#392,
'DISTANCE_ACCURACY_VALUE',
'Maximum model space distance between geometric entities at asserted c
onnectivities');
#387=UNCERTAINTY_MEASURE_WITH_UNIT(LENGTH_MEASURE(0.01),#392,
'DISTANCE_ACCURACY_VALUE',
'Maximum model space distance between geometric entities at asserted c
onnectivities');
#388=UNCERTAINTY_MEASURE_WITH_UNIT(LENGTH_MEASURE(0.01),#392,
'DISTANCE_ACCURACY_VALUE',
'Maximum model space distance between geometric entities at asserted c
onnectivities');
#389=(
GEOMETRIC_REPRESENTATION_CONTEXT(3)
GLOBAL_UNCERTAINTY_ASSIGNED_CONTEXT((#386))
GLOBAL_UNIT_ASSIGNED_CONTEXT((#392,#394,#395))
REPRESENTATION_CONTEXT('','3D')
);
#390=(
GEOMETRIC_REPRESENTATION_CONTEXT(3)
GLOBAL_UNCERTAINTY_ASSIGNED_CONTEXT((#387))
GLOBAL_UNIT_ASSIGNED_CONTEXT((#392,#394,#395))
REPRESENTATION_CONTEXT('','3D')
);
#391=(
GEOMETRIC_REPRESENTATION_CONTEXT(3)
GLOBAL_UNCERTAINTY_ASSIGNED_CONTEXT((#388))
GLOBAL_UNIT_ASSIGNED_CONTEXT((#392,#394,#395))
REPRESENTATION_CONTEXT('','3D')
);
#392=(
LENGTH_UNIT()
NAMED_UNIT(*)
SI_UNIT(.MILLI.,.METRE.)
);
#393=(
LENGTH_UNIT()
NAMED_UNIT(*)
SI_UNIT($,.METRE.)
);
#394=(
NAMED_UNIT(*)
PLANE_ANGLE_UNIT()
SI_UNIT($,.RADIAN.)
);
#395=(
NAMED_UNIT(*)
SI_UNIT($,.STERADIAN.)
SOLID_ANGLE_UNIT()
);
#396=SHAPE_DEFINITION_REPRESENTATION(#398,#401);
#397=SHAPE_DEFINITION_REPRESENTATION(#399,#402);
#398=PRODUCT_DEFINITION_SHAPE('',$,#404);
#399=PRODUCT_DEFINITION_SHAPE('',$,#405);
#400=PRODUCT_DEFINITION_SHAPE($,$,#14);
#401=SHAPE_REPRESENTATION('',(#226,#257),#389);
#402=SHAPE_REPRESENTATION('',(#227),#390);
#403=PRODUCT_DEFINITION_CONTEXT('part definition',#411,'design');
#404=PRODUCT_DEFINITION('Base Acier 4 parties def',
'Base Acier 4 parties def v2',#406,#403);
#405=PRODUCT_DEFINITION('Base Acier','Base Acier',#407,#403);
#406=PRODUCT_DEFINITION_FORMATION('',$,#413);
#407=PRODUCT_DEFINITION_FORMATION('',$,#414);
#408=PRODUCT_RELATED_PRODUCT_CATEGORY('Base Acier 4 parties def v2',
'Base Acier 4 parties def v2',(#413));
#409=PRODUCT_RELATED_PRODUCT_CATEGORY('Base Acier','Base Acier',(#414));
#410=APPLICATION_PROTOCOL_DEFINITION('international standard',
'automotive_design',2009,#411);
#411=APPLICATION_CONTEXT(
'Core Data for Automotive Mechanical Design Process');
#412=PRODUCT_CONTEXT('part definition',#411,'mechanical');
#413=PRODUCT('Base Acier 4 parties def','Base Acier 4 parties def v2',$,
(#412));
#414=PRODUCT('Base Acier','Base Acier',$,(#412));
#415=PRESENTATION_STYLE_ASSIGNMENT((#416));
#416=SURFACE_STYLE_USAGE(.BOTH.,#417);
#417=SURFACE_SIDE_STYLE('',(#418));
#418=SURFACE_STYLE_FILL_AREA(#419);
#419=FILL_AREA_STYLE('Acier - Satin\X\E9',(#420));
#420=FILL_AREA_STYLE_COLOUR('Acier - Satin\X\E9',#421);
#421=COLOUR_RGB('Acier - Satin\X\E9',0.627450980392157,0.627450980392157,
0.627450980392157);
ENDSEC;
END-ISO-10303-21;
