ISO-10303-21;
HEADER;
/* Generated by software containing ST-Developer
 * from STEP Tools, Inc. (www.steptools.com) 
 */

FILE_DESCRIPTION(
/* description */ (''),
/* implementation_level */ '2;1');

FILE_NAME(
/* name */ 'flare v1.step',
/* time_stamp */ '2023-08-10T10:39:24+02:00',
/* author */ (''),
/* organization */ (''),
/* preprocessor_version */ 'ST-DEVELOPER v20',
/* originating_system */ 'Autodesk Translation Framework v12.9.0.99',
/* authorisation */ '');

FILE_SCHEMA (('AUTOMOTIVE_DESIGN { 1 0 10303 214 3 1 1 }'));
ENDSEC;

DATA;
#10=MECHANICAL_DESIGN_GEOMETRIC_PRESENTATION_REPRESENTATION('',(#13),#225);
#11=SHAPE_REPRESENTATION_RELATIONSHIP('SRR','None',#232,#12);
#12=ADVANCED_BREP_SHAPE_REPRESENTATION('',(#14),#224);
#13=STYLED_ITEM('',(#241),#14);
#14=MANIFOLD_SOLID_BREP('Corps1',#121);
#15=FACE_BOUND('',#34,.T.);
#16=FACE_BOUND('',#39,.T.);
#17=PLANE('',#140);
#18=PLANE('',#148);
#19=CYLINDRICAL_SURFACE('',#138,13.535080400059);
#20=CYLINDRICAL_SURFACE('',#142,12.19375);
#21=CYLINDRICAL_SURFACE('',#146,23.);
#22=CYLINDRICAL_SURFACE('',#150,25.);
#23=FACE_OUTER_BOUND('',#31,.T.);
#24=FACE_OUTER_BOUND('',#32,.T.);
#25=FACE_OUTER_BOUND('',#33,.T.);
#26=FACE_OUTER_BOUND('',#35,.T.);
#27=FACE_OUTER_BOUND('',#36,.T.);
#28=FACE_OUTER_BOUND('',#37,.T.);
#29=FACE_OUTER_BOUND('',#38,.T.);
#30=FACE_OUTER_BOUND('',#40,.T.);
#31=EDGE_LOOP('',(#83,#84,#85,#86));
#32=EDGE_LOOP('',(#87,#88,#89,#90));
#33=EDGE_LOOP('',(#91));
#34=EDGE_LOOP('',(#92));
#35=EDGE_LOOP('',(#93,#94,#95,#96));
#36=EDGE_LOOP('',(#97,#98,#99,#100));
#37=EDGE_LOOP('',(#101,#102,#103,#104));
#38=EDGE_LOOP('',(#105));
#39=EDGE_LOOP('',(#106));
#40=EDGE_LOOP('',(#107,#108,#109,#110));
#41=LINE('',#196,#47);
#42=LINE('',#201,#48);
#43=LINE('',#207,#49);
#44=LINE('',#211,#50);
#45=LINE('',#215,#51);
#46=LINE('',#221,#52);
#47=VECTOR('',#157,19.2675402000295);
#48=VECTOR('',#164,13.535080400059);
#49=VECTOR('',#171,11.535080400059);
#50=VECTOR('',#176,17.2675402000295);
#51=VECTOR('',#181,23.);
#52=VECTOR('',#190,25.);
#53=CIRCLE('',#136,13.535080400059);
#54=CIRCLE('',#137,25.);
#55=CIRCLE('',#139,13.535080400059);
#56=CIRCLE('',#141,12.19375);
#57=CIRCLE('',#143,12.19375);
#58=CIRCLE('',#145,23.);
#59=CIRCLE('',#147,23.);
#60=CIRCLE('',#149,25.);
#61=VERTEX_POINT('',#193);
#62=VERTEX_POINT('',#195);
#63=VERTEX_POINT('',#199);
#64=VERTEX_POINT('',#203);
#65=VERTEX_POINT('',#206);
#66=VERTEX_POINT('',#210);
#67=VERTEX_POINT('',#214);
#68=VERTEX_POINT('',#218);
#69=EDGE_CURVE('',#61,#61,#53,.T.);
#70=EDGE_CURVE('',#61,#62,#41,.T.);
#71=EDGE_CURVE('',#62,#62,#54,.T.);
#72=EDGE_CURVE('',#63,#63,#55,.T.);
#73=EDGE_CURVE('',#63,#61,#42,.T.);
#74=EDGE_CURVE('',#64,#64,#56,.T.);
#75=EDGE_CURVE('',#64,#65,#43,.T.);
#76=EDGE_CURVE('',#65,#65,#57,.F.);
#77=EDGE_CURVE('',#65,#66,#44,.T.);
#78=EDGE_CURVE('',#66,#66,#58,.T.);
#79=EDGE_CURVE('',#66,#67,#45,.T.);
#80=EDGE_CURVE('',#67,#67,#59,.T.);
#81=EDGE_CURVE('',#68,#68,#60,.T.);
#82=EDGE_CURVE('',#62,#68,#46,.T.);
#83=ORIENTED_EDGE('',*,*,#69,.F.);
#84=ORIENTED_EDGE('',*,*,#70,.T.);
#85=ORIENTED_EDGE('',*,*,#71,.T.);
#86=ORIENTED_EDGE('',*,*,#70,.F.);
#87=ORIENTED_EDGE('',*,*,#72,.F.);
#88=ORIENTED_EDGE('',*,*,#73,.T.);
#89=ORIENTED_EDGE('',*,*,#69,.T.);
#90=ORIENTED_EDGE('',*,*,#73,.F.);
#91=ORIENTED_EDGE('',*,*,#72,.T.);
#92=ORIENTED_EDGE('',*,*,#74,.F.);
#93=ORIENTED_EDGE('',*,*,#74,.T.);
#94=ORIENTED_EDGE('',*,*,#75,.T.);
#95=ORIENTED_EDGE('',*,*,#76,.F.);
#96=ORIENTED_EDGE('',*,*,#75,.F.);
#97=ORIENTED_EDGE('',*,*,#76,.T.);
#98=ORIENTED_EDGE('',*,*,#77,.T.);
#99=ORIENTED_EDGE('',*,*,#78,.F.);
#100=ORIENTED_EDGE('',*,*,#77,.F.);
#101=ORIENTED_EDGE('',*,*,#78,.T.);
#102=ORIENTED_EDGE('',*,*,#79,.T.);
#103=ORIENTED_EDGE('',*,*,#80,.F.);
#104=ORIENTED_EDGE('',*,*,#79,.F.);
#105=ORIENTED_EDGE('',*,*,#81,.F.);
#106=ORIENTED_EDGE('',*,*,#80,.T.);
#107=ORIENTED_EDGE('',*,*,#71,.F.);
#108=ORIENTED_EDGE('',*,*,#82,.T.);
#109=ORIENTED_EDGE('',*,*,#81,.T.);
#110=ORIENTED_EDGE('',*,*,#82,.F.);
#111=CONICAL_SURFACE('',#135,19.2675402000295,0.625761129502037);
#112=CONICAL_SURFACE('',#144,17.2675402000295,0.625761129502038);
#113=ADVANCED_FACE('',(#23),#111,.T.);
#114=ADVANCED_FACE('',(#24),#19,.T.);
#115=ADVANCED_FACE('',(#25,#15),#17,.T.);
#116=ADVANCED_FACE('',(#26),#20,.F.);
#117=ADVANCED_FACE('',(#27),#112,.F.);
#118=ADVANCED_FACE('',(#28),#21,.F.);
#119=ADVANCED_FACE('',(#29,#16),#18,.T.);
#120=ADVANCED_FACE('',(#30),#22,.T.);
#121=CLOSED_SHELL('',(#113,#114,#115,#116,#117,#118,#119,#120));
#122=DERIVED_UNIT_ELEMENT(#124,1.);
#123=DERIVED_UNIT_ELEMENT(#227,-3.);
#124=(
MASS_UNIT()
NAMED_UNIT(*)
SI_UNIT(.KILO.,.GRAM.)
);
#125=DERIVED_UNIT((#122,#123));
#126=MEASURE_REPRESENTATION_ITEM('density measure',
POSITIVE_RATIO_MEASURE(7850.),#125);
#127=PROPERTY_DEFINITION_REPRESENTATION(#132,#129);
#128=PROPERTY_DEFINITION_REPRESENTATION(#133,#130);
#129=REPRESENTATION('material name',(#131),#224);
#130=REPRESENTATION('density',(#126),#224);
#131=DESCRIPTIVE_REPRESENTATION_ITEM('Acier','Acier');
#132=PROPERTY_DEFINITION('material property','material name',#234);
#133=PROPERTY_DEFINITION('material property','density of part',#234);
#134=AXIS2_PLACEMENT_3D('',#191,#151,#152);
#135=AXIS2_PLACEMENT_3D('',#192,#153,#154);
#136=AXIS2_PLACEMENT_3D('',#194,#155,#156);
#137=AXIS2_PLACEMENT_3D('',#197,#158,#159);
#138=AXIS2_PLACEMENT_3D('',#198,#160,#161);
#139=AXIS2_PLACEMENT_3D('',#200,#162,#163);
#140=AXIS2_PLACEMENT_3D('',#202,#165,#166);
#141=AXIS2_PLACEMENT_3D('',#204,#167,#168);
#142=AXIS2_PLACEMENT_3D('',#205,#169,#170);
#143=AXIS2_PLACEMENT_3D('',#208,#172,#173);
#144=AXIS2_PLACEMENT_3D('',#209,#174,#175);
#145=AXIS2_PLACEMENT_3D('',#212,#177,#178);
#146=AXIS2_PLACEMENT_3D('',#213,#179,#180);
#147=AXIS2_PLACEMENT_3D('',#216,#182,#183);
#148=AXIS2_PLACEMENT_3D('',#217,#184,#185);
#149=AXIS2_PLACEMENT_3D('',#219,#186,#187);
#150=AXIS2_PLACEMENT_3D('',#220,#188,#189);
#151=DIRECTION('axis',(0.,0.,1.));
#152=DIRECTION('refdir',(1.,0.,0.));
#153=DIRECTION('center_axis',(0.,0.,-1.));
#154=DIRECTION('ref_axis',(0.,-1.,0.));
#155=DIRECTION('center_axis',(0.,0.,1.));
#156=DIRECTION('ref_axis',(1.,0.,0.));
#157=DIRECTION('',(-7.1729320560459E-17,0.585714351357467,-0.810517549849417));
#158=DIRECTION('center_axis',(0.,0.,1.));
#159=DIRECTION('ref_axis',(1.,0.,0.));
#160=DIRECTION('center_axis',(0.,0.,1.));
#161=DIRECTION('ref_axis',(0.,-1.,0.));
#162=DIRECTION('center_axis',(0.,0.,1.));
#163=DIRECTION('ref_axis',(1.,0.,0.));
#164=DIRECTION('',(0.,0.,-1.));
#165=DIRECTION('center_axis',(0.,0.,1.));
#166=DIRECTION('ref_axis',(1.,0.,0.));
#167=DIRECTION('center_axis',(0.,0.,1.));
#168=DIRECTION('ref_axis',(0.,-1.,0.));
#169=DIRECTION('center_axis',(0.,0.,1.));
#170=DIRECTION('ref_axis',(0.,-1.,0.));
#171=DIRECTION('',(0.,0.,-1.));
#172=DIRECTION('center_axis',(0.,0.,-1.));
#173=DIRECTION('ref_axis',(0.,-1.,0.));
#174=DIRECTION('center_axis',(0.,0.,-1.));
#175=DIRECTION('ref_axis',(0.,-1.,0.));
#176=DIRECTION('',(-7.17293205604591E-17,0.585714351357468,-0.810517549849416));
#177=DIRECTION('center_axis',(0.,0.,1.));
#178=DIRECTION('ref_axis',(1.,0.,0.));
#179=DIRECTION('center_axis',(0.,0.,1.));
#180=DIRECTION('ref_axis',(0.,-1.,0.));
#181=DIRECTION('',(0.,0.,-1.));
#182=DIRECTION('center_axis',(0.,0.,1.));
#183=DIRECTION('ref_axis',(1.,0.,0.));
#184=DIRECTION('center_axis',(0.,0.,-1.));
#185=DIRECTION('ref_axis',(-1.,0.,0.));
#186=DIRECTION('center_axis',(0.,0.,1.));
#187=DIRECTION('ref_axis',(1.,0.,0.));
#188=DIRECTION('center_axis',(0.,0.,1.));
#189=DIRECTION('ref_axis',(0.,-1.,0.));
#190=DIRECTION('',(0.,0.,-1.));
#191=CARTESIAN_POINT('',(0.,0.,0.));
#192=CARTESIAN_POINT('Origin',(0.,25.,67.932636891881));
#193=CARTESIAN_POINT('',(-1.65756928881343E-15,38.535080400059,75.8652737837619));
#194=CARTESIAN_POINT('Origin',(0.,25.,75.8652737837619));
#195=CARTESIAN_POINT('',(-3.06161699786838E-15,50.,60.));
#196=CARTESIAN_POINT('',(-2.35959314334091E-15,44.2675402000295,67.932636891881));
#197=CARTESIAN_POINT('Origin',(0.,25.,60.));
#198=CARTESIAN_POINT('Origin',(0.,25.,83.3652737837619));
#199=CARTESIAN_POINT('',(-1.65756928881343E-15,38.535080400059,90.8652737837619));
#200=CARTESIAN_POINT('Origin',(0.,25.,90.8652737837619));
#201=CARTESIAN_POINT('',(-1.65756928881343E-15,38.535080400059,83.3652737837619));
#202=CARTESIAN_POINT('Origin',(0.,13.464919599941,90.8652737837619));
#203=CARTESIAN_POINT('',(-1.4933036907103E-15,37.19375,90.8652737837619));
#204=CARTESIAN_POINT('Origin',(0.,25.,90.8652737837619));
#205=CARTESIAN_POINT('Origin',(0.,25.,83.0417671978102));
#206=CARTESIAN_POINT('',(1.4933036907103E-15,37.19375,74.3067868378811));
#207=CARTESIAN_POINT('',(-1.4933036907103E-15,37.19375,83.0417671978102));
#208=CARTESIAN_POINT('Origin',(0.,25.,74.3067868378811));
#209=CARTESIAN_POINT('Origin',(0.,25.,67.2856237199775));
#210=CARTESIAN_POINT('',(-2.81668763803891E-15,48.,59.3529868280966));
#211=CARTESIAN_POINT('',(-2.11466378351144E-15,42.2675402000295,67.2856237199775));
#212=CARTESIAN_POINT('Origin',(0.,25.,59.3529868280966));
#213=CARTESIAN_POINT('Origin',(0.,25.,29.6764934140483));
#214=CARTESIAN_POINT('',(-2.81668763803891E-15,48.,0.));
#215=CARTESIAN_POINT('',(-2.81668763803891E-15,48.,29.6764934140483));
#216=CARTESIAN_POINT('Origin',(0.,25.,0.));
#217=CARTESIAN_POINT('Origin',(0.,0.,0.));
#218=CARTESIAN_POINT('',(-3.06161699786838E-15,50.,0.));
#219=CARTESIAN_POINT('Origin',(0.,25.,0.));
#220=CARTESIAN_POINT('Origin',(0.,25.,30.));
#221=CARTESIAN_POINT('',(-3.06161699786838E-15,50.,30.));
#222=UNCERTAINTY_MEASURE_WITH_UNIT(LENGTH_MEASURE(0.01),#226,
'DISTANCE_ACCURACY_VALUE',
'Maximum model space distance between geometric entities at asserted c
onnectivities');
#223=UNCERTAINTY_MEASURE_WITH_UNIT(LENGTH_MEASURE(0.01),#226,
'DISTANCE_ACCURACY_VALUE',
'Maximum model space distance between geometric entities at asserted c
onnectivities');
#224=(
GEOMETRIC_REPRESENTATION_CONTEXT(3)
GLOBAL_UNCERTAINTY_ASSIGNED_CONTEXT((#222))
GLOBAL_UNIT_ASSIGNED_CONTEXT((#226,#228,#229))
REPRESENTATION_CONTEXT('','3D')
);
#225=(
GEOMETRIC_REPRESENTATION_CONTEXT(3)
GLOBAL_UNCERTAINTY_ASSIGNED_CONTEXT((#223))
GLOBAL_UNIT_ASSIGNED_CONTEXT((#226,#228,#229))
REPRESENTATION_CONTEXT('','3D')
);
#226=(
LENGTH_UNIT()
NAMED_UNIT(*)
SI_UNIT(.MILLI.,.METRE.)
);
#227=(
LENGTH_UNIT()
NAMED_UNIT(*)
SI_UNIT($,.METRE.)
);
#228=(
NAMED_UNIT(*)
PLANE_ANGLE_UNIT()
SI_UNIT($,.RADIAN.)
);
#229=(
NAMED_UNIT(*)
SI_UNIT($,.STERADIAN.)
SOLID_ANGLE_UNIT()
);
#230=SHAPE_DEFINITION_REPRESENTATION(#231,#232);
#231=PRODUCT_DEFINITION_SHAPE('',$,#234);
#232=SHAPE_REPRESENTATION('',(#134),#224);
#233=PRODUCT_DEFINITION_CONTEXT('part definition',#238,'design');
#234=PRODUCT_DEFINITION('flare','flare v3',#235,#233);
#235=PRODUCT_DEFINITION_FORMATION('',$,#240);
#236=PRODUCT_RELATED_PRODUCT_CATEGORY('flare v3','flare v3',(#240));
#237=APPLICATION_PROTOCOL_DEFINITION('international standard',
'automotive_design',2009,#238);
#238=APPLICATION_CONTEXT(
'Core Data for Automotive Mechanical Design Process');
#239=PRODUCT_CONTEXT('part definition',#238,'mechanical');
#240=PRODUCT('flare','flare v3',$,(#239));
#241=PRESENTATION_STYLE_ASSIGNMENT((#242));
#242=SURFACE_STYLE_USAGE(.BOTH.,#243);
#243=SURFACE_SIDE_STYLE('',(#244));
#244=SURFACE_STYLE_FILL_AREA(#245);
#245=FILL_AREA_STYLE('Acier - Satin\X\E9',(#246));
#246=FILL_AREA_STYLE_COLOUR('Acier - Satin\X\E9',#247);
#247=COLOUR_RGB('Acier - Satin\X\E9',0.627450980392157,0.627450980392157,
0.627450980392157);
ENDSEC;
END-ISO-10303-21;
