ISO-10303-21;
HEADER;
FILE_DESCRIPTION(('CATIA V5 STEP Exchange'),'2;1');

FILE_NAME('C:\\Users\\Piou\\Documents\\EPSA\\V1.5\\Catia\\Support serrage\\Equerre.stp','2023-08-29T16:48:24+00:00',('none'),('none'),'CATIA Version 5 Release 19 SP 2 (IN-10)','CATIA V5 STEP AP203','none');

FILE_SCHEMA(('CONFIG_CONTROL_DESIGN'));

ENDSEC;
/* file written by CATIA V5R19 */
DATA;
#5=PRODUCT('Equerre','','',(#2)) ;
#1=APPLICATION_CONTEXT('configuration controlled 3D design of mechanical parts and assemblies') ;
#14=PRODUCT_DEFINITION('',' ',#6,#3) ;
#16=SECURITY_CLASSIFICATION(' ',' ',#15) ;
#15=SECURITY_CLASSIFICATION_LEVEL('unclassified') ;
#47=CARTESIAN_POINT(' ',(0.,0.,0.)) ;
#52=CARTESIAN_POINT('Axis2P3D Location',(0.,30.,0.)) ;
#57=CARTESIAN_POINT('Line Origine',(0.,30.,0.)) ;
#61=CARTESIAN_POINT('Vertex',(-100.,30.,0.)) ;
#63=CARTESIAN_POINT('Vertex',(100.,30.,0.)) ;
#66=CARTESIAN_POINT('Line Origine',(-100.,30.,1.5)) ;
#70=CARTESIAN_POINT('Vertex',(-100.,30.,3.)) ;
#73=CARTESIAN_POINT('Line Origine',(0.,30.,3.)) ;
#77=CARTESIAN_POINT('Vertex',(100.,30.,3.)) ;
#80=CARTESIAN_POINT('Line Origine',(100.,30.,1.5)) ;
#92=CARTESIAN_POINT('Axis2P3D Location',(0.,6.,6.)) ;
#97=CARTESIAN_POINT('Line Origine',(0.,6.,3.)) ;
#101=CARTESIAN_POINT('Vertex',(-100.,6.,3.)) ;
#103=CARTESIAN_POINT('Vertex',(100.,6.,3.)) ;
#106=CARTESIAN_POINT('Axis2P3D Location',(-100.,6.,6.)) ;
#110=CARTESIAN_POINT('Vertex',(-100.,3.,6.)) ;
#113=CARTESIAN_POINT('Line Origine',(0.,3.,6.)) ;
#117=CARTESIAN_POINT('Vertex',(100.,3.,6.)) ;
#120=CARTESIAN_POINT('Axis2P3D Location',(100.,6.,6.)) ;
#132=CARTESIAN_POINT('Axis2P3D Location',(0.,3.,3.)) ;
#137=CARTESIAN_POINT('Line Origine',(0.,0.,3.)) ;
#141=CARTESIAN_POINT('Vertex',(-100.,0.,3.)) ;
#143=CARTESIAN_POINT('Vertex',(100.,0.,3.)) ;
#146=CARTESIAN_POINT('Axis2P3D Location',(-100.,3.,3.)) ;
#150=CARTESIAN_POINT('Vertex',(-100.,3.,0.)) ;
#153=CARTESIAN_POINT('Line Origine',(0.,3.,0.)) ;
#157=CARTESIAN_POINT('Vertex',(100.,3.,0.)) ;
#160=CARTESIAN_POINT('Axis2P3D Location',(100.,3.,3.)) ;
#172=CARTESIAN_POINT('Axis2P3D Location',(70.,18.,10.)) ;
#177=CARTESIAN_POINT('Axis2P3D Location',(70.,18.,3.)) ;
#181=CARTESIAN_POINT('Vertex',(65.5,18.,3.)) ;
#183=CARTESIAN_POINT('Vertex',(74.5,18.,3.)) ;
#186=CARTESIAN_POINT('Line Origine',(74.5,18.,10.)) ;
#190=CARTESIAN_POINT('Vertex',(74.5,18.,0.)) ;
#193=CARTESIAN_POINT('Axis2P3D Location',(70.,18.,0.)) ;
#197=CARTESIAN_POINT('Vertex',(65.5,18.,0.)) ;
#200=CARTESIAN_POINT('Line Origine',(65.5,18.,10.)) ;
#212=CARTESIAN_POINT('Axis2P3D Location',(70.,18.,3.)) ;
#217=CARTESIAN_POINT('Axis2P3D Location',(70.,18.,0.)) ;
#229=CARTESIAN_POINT('Axis2P3D Location',(0.,3.,0.)) ;
#234=CARTESIAN_POINT('Line Origine',(-100.,16.5,0.)) ;
#239=CARTESIAN_POINT('Line Origine',(100.,16.5,0.)) ;
#250=CARTESIAN_POINT('Axis2P3D Location',(-70.,18.,0.)) ;
#254=CARTESIAN_POINT('Vertex',(-74.5,18.,0.)) ;
#256=CARTESIAN_POINT('Vertex',(-65.5,18.,0.)) ;
#259=CARTESIAN_POINT('Axis2P3D Location',(-70.,18.,0.)) ;
#273=CARTESIAN_POINT('Axis2P3D Location',(0.,30.,3.)) ;
#278=CARTESIAN_POINT('Line Origine',(-100.,18.,3.)) ;
#283=CARTESIAN_POINT('Line Origine',(100.,18.,3.)) ;
#294=CARTESIAN_POINT('Axis2P3D Location',(-70.,18.,3.)) ;
#298=CARTESIAN_POINT('Vertex',(-65.5,18.,3.)) ;
#300=CARTESIAN_POINT('Vertex',(-74.5,18.,3.)) ;
#303=CARTESIAN_POINT('Axis2P3D Location',(-70.,18.,3.)) ;
#317=CARTESIAN_POINT('Axis2P3D Location',(-70.,18.,10.)) ;
#322=CARTESIAN_POINT('Line Origine',(-65.5,18.,10.)) ;
#327=CARTESIAN_POINT('Line Origine',(-74.5,18.,10.)) ;
#346=CARTESIAN_POINT('Axis2P3D Location',(-100.,0.,0.)) ;
#351=CARTESIAN_POINT('Line Origine',(-100.,1.5,6.)) ;
#355=CARTESIAN_POINT('Vertex',(-100.,0.,6.)) ;
#358=CARTESIAN_POINT('Line Origine',(-100.,0.,4.5)) ;
#373=CARTESIAN_POINT('Axis2P3D Location',(-100.,0.,6.)) ;
#378=CARTESIAN_POINT('Line Origine',(-82.8622239191,0.,18.)) ;
#382=CARTESIAN_POINT('Vertex',(-65.7244478382,8.881784197E-016,30.)) ;
#385=CARTESIAN_POINT('Line Origine',(-65.7244478382,1.5,30.)) ;
#389=CARTESIAN_POINT('Vertex',(-65.7244478382,3.,30.)) ;
#392=CARTESIAN_POINT('Line Origine',(-82.8622239191,3.,18.)) ;
#404=CARTESIAN_POINT('Axis2P3D Location',(0.,3.,6.)) ;
#409=CARTESIAN_POINT('Line Origine',(1.42108547152E-014,3.,30.)) ;
#413=CARTESIAN_POINT('Vertex',(65.7244478382,3.,30.)) ;
#416=CARTESIAN_POINT('Line Origine',(82.8622239191,3.,18.)) ;
#428=CARTESIAN_POINT('Axis2P3D Location',(0.,3.,30.)) ;
#433=CARTESIAN_POINT('Line Origine',(0.,1.50990331349E-014,30.)) ;
#437=CARTESIAN_POINT('Vertex',(65.7244478382,8.881784197E-016,30.)) ;
#440=CARTESIAN_POINT('Line Origine',(65.7244478382,1.5,30.)) ;
#452=CARTESIAN_POINT('Axis2P3D Location',(0.,0.,3.)) ;
#457=CARTESIAN_POINT('Line Origine',(82.8622239191,0.,18.)) ;
#461=CARTESIAN_POINT('Vertex',(100.,0.,6.)) ;
#464=CARTESIAN_POINT('Line Origine',(100.,0.,4.5)) ;
#478=CARTESIAN_POINT('Axis2P3D Location',(100.,0.,0.)) ;
#483=CARTESIAN_POINT('Line Origine',(100.,1.5,6.)) ;
#498=CARTESIAN_POINT('Axis2P3D Location',(100.,0.,6.)) ;
#53=DIRECTION('Axis2P3D Direction',(0.,1.,0.)) ;
#54=DIRECTION('Axis2P3D XDirection',(0.,0.,1.)) ;
#58=DIRECTION('Vector Direction',(1.,0.,0.)) ;
#67=DIRECTION('Vector Direction',(0.,0.,1.)) ;
#74=DIRECTION('Vector Direction',(1.,0.,0.)) ;
#81=DIRECTION('Vector Direction',(0.,0.,1.)) ;
#93=DIRECTION('Axis2P3D Direction',(1.,0.,0.)) ;
#94=DIRECTION('Axis2P3D XDirection',(-0.,-1.,-1.20980294964E-015)) ;
#98=DIRECTION('Vector Direction',(1.,0.,0.)) ;
#107=DIRECTION('Axis2P3D Direction',(1.,0.,0.)) ;
#114=DIRECTION('Vector Direction',(1.,0.,0.)) ;
#121=DIRECTION('Axis2P3D Direction',(1.,0.,0.)) ;
#133=DIRECTION('Axis2P3D Direction',(1.,0.,0.)) ;
#134=DIRECTION('Axis2P3D XDirection',(0.,-1.,1.22464679915E-016)) ;
#138=DIRECTION('Vector Direction',(1.,0.,0.)) ;
#147=DIRECTION('Axis2P3D Direction',(1.,0.,0.)) ;
#154=DIRECTION('Vector Direction',(1.,0.,0.)) ;
#161=DIRECTION('Axis2P3D Direction',(1.,0.,0.)) ;
#173=DIRECTION('Axis2P3D Direction',(0.,0.,1.)) ;
#174=DIRECTION('Axis2P3D XDirection',(1.,0.,0.)) ;
#178=DIRECTION('Axis2P3D Direction',(0.,0.,1.)) ;
#187=DIRECTION('Vector Direction',(0.,0.,1.)) ;
#194=DIRECTION('Axis2P3D Direction',(0.,0.,1.)) ;
#201=DIRECTION('Vector Direction',(0.,0.,1.)) ;
#213=DIRECTION('Axis2P3D Direction',(0.,0.,1.)) ;
#218=DIRECTION('Axis2P3D Direction',(0.,0.,1.)) ;
#230=DIRECTION('Axis2P3D Direction',(0.,0.,-1.)) ;
#231=DIRECTION('Axis2P3D XDirection',(0.,1.,0.)) ;
#235=DIRECTION('Vector Direction',(0.,1.,0.)) ;
#240=DIRECTION('Vector Direction',(0.,1.,0.)) ;
#251=DIRECTION('Axis2P3D Direction',(0.,0.,-1.)) ;
#260=DIRECTION('Axis2P3D Direction',(0.,0.,-1.)) ;
#274=DIRECTION('Axis2P3D Direction',(-0.,0.,1.)) ;
#275=DIRECTION('Axis2P3D XDirection',(0.,-1.,0.)) ;
#279=DIRECTION('Vector Direction',(0.,-1.,0.)) ;
#284=DIRECTION('Vector Direction',(0.,-1.,0.)) ;
#295=DIRECTION('Axis2P3D Direction',(-0.,0.,1.)) ;
#304=DIRECTION('Axis2P3D Direction',(-0.,0.,1.)) ;
#318=DIRECTION('Axis2P3D Direction',(0.,0.,-1.)) ;
#319=DIRECTION('Axis2P3D XDirection',(-1.,0.,0.)) ;
#323=DIRECTION('Vector Direction',(0.,0.,-1.)) ;
#328=DIRECTION('Vector Direction',(0.,0.,-1.)) ;
#347=DIRECTION('Axis2P3D Direction',(1.,0.,0.)) ;
#348=DIRECTION('Axis2P3D XDirection',(0.,1.,0.)) ;
#352=DIRECTION('Vector Direction',(0.,1.,0.)) ;
#359=DIRECTION('Vector Direction',(0.,0.,1.)) ;
#374=DIRECTION('Axis2P3D Direction',(-0.573576436351,0.,0.819152044289)) ;
#375=DIRECTION('Axis2P3D XDirection',(0.819152044289,0.,0.573576436351)) ;
#379=DIRECTION('Vector Direction',(0.819152044289,0.,0.573576436351)) ;
#386=DIRECTION('Vector Direction',(0.,1.,0.)) ;
#393=DIRECTION('Vector Direction',(0.819152044289,0.,0.573576436351)) ;
#405=DIRECTION('Axis2P3D Direction',(0.,1.,0.)) ;
#406=DIRECTION('Axis2P3D XDirection',(0.,0.,1.)) ;
#410=DIRECTION('Vector Direction',(1.,0.,0.)) ;
#417=DIRECTION('Vector Direction',(-0.819152044289,0.,0.573576436351)) ;
#429=DIRECTION('Axis2P3D Direction',(-0.,0.,1.)) ;
#430=DIRECTION('Axis2P3D XDirection',(0.,-1.,0.)) ;
#434=DIRECTION('Vector Direction',(1.,0.,0.)) ;
#441=DIRECTION('Vector Direction',(0.,1.,0.)) ;
#453=DIRECTION('Axis2P3D Direction',(0.,1.,0.)) ;
#454=DIRECTION('Axis2P3D XDirection',(0.,0.,1.)) ;
#458=DIRECTION('Vector Direction',(-0.819152044289,0.,0.573576436351)) ;
#465=DIRECTION('Vector Direction',(0.,0.,1.)) ;
#479=DIRECTION('Axis2P3D Direction',(1.,0.,0.)) ;
#480=DIRECTION('Axis2P3D XDirection',(0.,1.,0.)) ;
#484=DIRECTION('Vector Direction',(0.,1.,0.)) ;
#499=DIRECTION('Axis2P3D Direction',(-0.573576436351,0.,-0.819152044289)) ;
#500=DIRECTION('Axis2P3D XDirection',(-0.819152044289,0.,0.573576436351)) ;
#48=AXIS2_PLACEMENT_3D(' ',#47,$,$) ;
#55=AXIS2_PLACEMENT_3D('Plane Axis2P3D',#52,#53,#54) ;
#95=AXIS2_PLACEMENT_3D('Cylinder Axis2P3D',#92,#93,#94) ;
#108=AXIS2_PLACEMENT_3D('Circle Axis2P3D',#106,#107,$) ;
#122=AXIS2_PLACEMENT_3D('Circle Axis2P3D',#120,#121,$) ;
#135=AXIS2_PLACEMENT_3D('Cylinder Axis2P3D',#132,#133,#134) ;
#148=AXIS2_PLACEMENT_3D('Circle Axis2P3D',#146,#147,$) ;
#162=AXIS2_PLACEMENT_3D('Circle Axis2P3D',#160,#161,$) ;
#175=AXIS2_PLACEMENT_3D('Cylinder Axis2P3D',#172,#173,#174) ;
#179=AXIS2_PLACEMENT_3D('Circle Axis2P3D',#177,#178,$) ;
#195=AXIS2_PLACEMENT_3D('Circle Axis2P3D',#193,#194,$) ;
#214=AXIS2_PLACEMENT_3D('Circle Axis2P3D',#212,#213,$) ;
#219=AXIS2_PLACEMENT_3D('Circle Axis2P3D',#217,#218,$) ;
#232=AXIS2_PLACEMENT_3D('Plane Axis2P3D',#229,#230,#231) ;
#252=AXIS2_PLACEMENT_3D('Circle Axis2P3D',#250,#251,$) ;
#261=AXIS2_PLACEMENT_3D('Circle Axis2P3D',#259,#260,$) ;
#276=AXIS2_PLACEMENT_3D('Plane Axis2P3D',#273,#274,#275) ;
#296=AXIS2_PLACEMENT_3D('Circle Axis2P3D',#294,#295,$) ;
#305=AXIS2_PLACEMENT_3D('Circle Axis2P3D',#303,#304,$) ;
#320=AXIS2_PLACEMENT_3D('Cylinder Axis2P3D',#317,#318,#319) ;
#349=AXIS2_PLACEMENT_3D('Plane Axis2P3D',#346,#347,#348) ;
#376=AXIS2_PLACEMENT_3D('Plane Axis2P3D',#373,#374,#375) ;
#407=AXIS2_PLACEMENT_3D('Plane Axis2P3D',#404,#405,#406) ;
#431=AXIS2_PLACEMENT_3D('Plane Axis2P3D',#428,#429,#430) ;
#455=AXIS2_PLACEMENT_3D('Plane Axis2P3D',#452,#453,#454) ;
#481=AXIS2_PLACEMENT_3D('Plane Axis2P3D',#478,#479,#480) ;
#501=AXIS2_PLACEMENT_3D('Plane Axis2P3D',#498,#499,#500) ;
#40=PRODUCT_DEFINITION_SHAPE(' ',' ',#14) ;
#31=APPROVAL_PERSON_ORGANIZATION(#25,#21,#19) ;
#25=PERSON_AND_ORGANIZATION(#22,#23) ;
#22=PERSON(' ',' ',' ',$,$,$) ;
#23=ORGANIZATION(' ',' ',' ') ;
#21=APPROVAL(#20,' ') ;
#20=APPROVAL_STATUS('not_yet_approved') ;
#19=APPROVAL_ROLE('APPROVER') ;
#13=DATE_AND_TIME(#11,#12) ;
#12=LOCAL_TIME(18,48,24.,#10) ;
#10=COORDINATED_UNIVERSAL_TIME_OFFSET(0,0,.AHEAD.) ;
#86=ORIENTED_EDGE('',*,*,#65,.F.) ;
#87=ORIENTED_EDGE('',*,*,#72,.T.) ;
#88=ORIENTED_EDGE('',*,*,#79,.T.) ;
#89=ORIENTED_EDGE('',*,*,#84,.F.) ;
#126=ORIENTED_EDGE('',*,*,#105,.F.) ;
#127=ORIENTED_EDGE('',*,*,#112,.T.) ;
#128=ORIENTED_EDGE('',*,*,#119,.T.) ;
#129=ORIENTED_EDGE('',*,*,#124,.F.) ;
#166=ORIENTED_EDGE('',*,*,#145,.F.) ;
#167=ORIENTED_EDGE('',*,*,#152,.T.) ;
#168=ORIENTED_EDGE('',*,*,#159,.T.) ;
#169=ORIENTED_EDGE('',*,*,#164,.F.) ;
#206=ORIENTED_EDGE('',*,*,#185,.T.) ;
#207=ORIENTED_EDGE('',*,*,#192,.F.) ;
#208=ORIENTED_EDGE('',*,*,#199,.F.) ;
#209=ORIENTED_EDGE('',*,*,#204,.T.) ;
#223=ORIENTED_EDGE('',*,*,#216,.T.) ;
#224=ORIENTED_EDGE('',*,*,#204,.F.) ;
#225=ORIENTED_EDGE('',*,*,#221,.F.) ;
#226=ORIENTED_EDGE('',*,*,#192,.T.) ;
#245=ORIENTED_EDGE('',*,*,#159,.F.) ;
#246=ORIENTED_EDGE('',*,*,#238,.T.) ;
#247=ORIENTED_EDGE('',*,*,#65,.T.) ;
#248=ORIENTED_EDGE('',*,*,#243,.F.) ;
#265=ORIENTED_EDGE('',*,*,#258,.F.) ;
#266=ORIENTED_EDGE('',*,*,#263,.F.) ;
#269=ORIENTED_EDGE('',*,*,#221,.T.) ;
#270=ORIENTED_EDGE('',*,*,#199,.T.) ;
#289=ORIENTED_EDGE('',*,*,#79,.F.) ;
#290=ORIENTED_EDGE('',*,*,#282,.T.) ;
#291=ORIENTED_EDGE('',*,*,#105,.T.) ;
#292=ORIENTED_EDGE('',*,*,#287,.F.) ;
#309=ORIENTED_EDGE('',*,*,#302,.F.) ;
#310=ORIENTED_EDGE('',*,*,#307,.F.) ;
#313=ORIENTED_EDGE('',*,*,#216,.F.) ;
#314=ORIENTED_EDGE('',*,*,#185,.F.) ;
#333=ORIENTED_EDGE('',*,*,#307,.T.) ;
#334=ORIENTED_EDGE('',*,*,#326,.F.) ;
#335=ORIENTED_EDGE('',*,*,#263,.T.) ;
#336=ORIENTED_EDGE('',*,*,#331,.T.) ;
#340=ORIENTED_EDGE('',*,*,#302,.T.) ;
#341=ORIENTED_EDGE('',*,*,#331,.F.) ;
#342=ORIENTED_EDGE('',*,*,#258,.T.) ;
#343=ORIENTED_EDGE('',*,*,#326,.T.) ;
#364=ORIENTED_EDGE('',*,*,#357,.T.) ;
#365=ORIENTED_EDGE('',*,*,#112,.F.) ;
#366=ORIENTED_EDGE('',*,*,#282,.F.) ;
#367=ORIENTED_EDGE('',*,*,#72,.F.) ;
#368=ORIENTED_EDGE('',*,*,#238,.F.) ;
#369=ORIENTED_EDGE('',*,*,#152,.F.) ;
#370=ORIENTED_EDGE('',*,*,#362,.F.) ;
#398=ORIENTED_EDGE('',*,*,#357,.F.) ;
#399=ORIENTED_EDGE('',*,*,#384,.F.) ;
#400=ORIENTED_EDGE('',*,*,#391,.T.) ;
#401=ORIENTED_EDGE('',*,*,#396,.F.) ;
#422=ORIENTED_EDGE('',*,*,#119,.F.) ;
#423=ORIENTED_EDGE('',*,*,#396,.T.) ;
#424=ORIENTED_EDGE('',*,*,#415,.T.) ;
#425=ORIENTED_EDGE('',*,*,#420,.F.) ;
#446=ORIENTED_EDGE('',*,*,#415,.F.) ;
#447=ORIENTED_EDGE('',*,*,#391,.F.) ;
#448=ORIENTED_EDGE('',*,*,#439,.T.) ;
#449=ORIENTED_EDGE('',*,*,#444,.T.) ;
#470=ORIENTED_EDGE('',*,*,#463,.F.) ;
#471=ORIENTED_EDGE('',*,*,#439,.F.) ;
#472=ORIENTED_EDGE('',*,*,#384,.T.) ;
#473=ORIENTED_EDGE('',*,*,#362,.T.) ;
#474=ORIENTED_EDGE('',*,*,#145,.T.) ;
#475=ORIENTED_EDGE('',*,*,#468,.F.) ;
#489=ORIENTED_EDGE('',*,*,#468,.T.) ;
#490=ORIENTED_EDGE('',*,*,#164,.T.) ;
#491=ORIENTED_EDGE('',*,*,#243,.T.) ;
#492=ORIENTED_EDGE('',*,*,#84,.T.) ;
#493=ORIENTED_EDGE('',*,*,#287,.T.) ;
#494=ORIENTED_EDGE('',*,*,#124,.T.) ;
#495=ORIENTED_EDGE('',*,*,#487,.F.) ;
#504=ORIENTED_EDGE('',*,*,#420,.T.) ;
#505=ORIENTED_EDGE('',*,*,#444,.F.) ;
#506=ORIENTED_EDGE('',*,*,#463,.T.) ;
#507=ORIENTED_EDGE('',*,*,#487,.T.) ;
#267=FACE_BOUND('',#264,.T.) ;
#271=FACE_BOUND('',#268,.T.) ;
#311=FACE_BOUND('',#308,.T.) ;
#315=FACE_BOUND('',#312,.T.) ;
#51=CLOSED_SHELL('Closed Shell',(#91,#131,#171,#211,#228,#272,#316,#338,#345,#372,#403,#427,#451,#477,#497,#509)) ;
#59=VECTOR('Line Direction',#58,1.) ;
#68=VECTOR('Line Direction',#67,1.) ;
#75=VECTOR('Line Direction',#74,1.) ;
#82=VECTOR('Line Direction',#81,1.) ;
#99=VECTOR('Line Direction',#98,1.) ;
#115=VECTOR('Line Direction',#114,1.) ;
#139=VECTOR('Line Direction',#138,1.) ;
#155=VECTOR('Line Direction',#154,1.) ;
#188=VECTOR('Line Direction',#187,1.) ;
#202=VECTOR('Line Direction',#201,1.) ;
#236=VECTOR('Line Direction',#235,1.) ;
#241=VECTOR('Line Direction',#240,1.) ;
#280=VECTOR('Line Direction',#279,1.) ;
#285=VECTOR('Line Direction',#284,1.) ;
#324=VECTOR('Line Direction',#323,1.) ;
#329=VECTOR('Line Direction',#328,1.) ;
#353=VECTOR('Line Direction',#352,1.) ;
#360=VECTOR('Line Direction',#359,1.) ;
#380=VECTOR('Line Direction',#379,1.) ;
#387=VECTOR('Line Direction',#386,1.) ;
#394=VECTOR('Line Direction',#393,1.) ;
#411=VECTOR('Line Direction',#410,1.) ;
#418=VECTOR('Line Direction',#417,1.) ;
#435=VECTOR('Line Direction',#434,1.) ;
#442=VECTOR('Line Direction',#441,1.) ;
#459=VECTOR('Line Direction',#458,1.) ;
#466=VECTOR('Line Direction',#465,1.) ;
#485=VECTOR('Line Direction',#484,1.) ;
#511=ADVANCED_BREP_SHAPE_REPRESENTATION('NONE',(#510),#46) ;
#49=SHAPE_REPRESENTATION(' ',(#48),#46) ;
#91=ADVANCED_FACE('Corps principal',(#90),#56,.T.) ;
#131=ADVANCED_FACE('Corps principal',(#130),#96,.F.) ;
#171=ADVANCED_FACE('Corps principal',(#170),#136,.T.) ;
#211=ADVANCED_FACE('Corps principal',(#210),#176,.F.) ;
#228=ADVANCED_FACE('Corps principal',(#227),#176,.F.) ;
#272=ADVANCED_FACE('Corps principal',(#249,#267,#271),#233,.T.) ;
#316=ADVANCED_FACE('Corps principal',(#293,#311,#315),#277,.T.) ;
#338=ADVANCED_FACE('Corps principal',(#337),#321,.F.) ;
#345=ADVANCED_FACE('Corps principal',(#344),#321,.F.) ;
#372=ADVANCED_FACE('Corps principal',(#371),#350,.F.) ;
#403=ADVANCED_FACE('Corps principal',(#402),#377,.T.) ;
#427=ADVANCED_FACE('Corps principal',(#426),#408,.T.) ;
#451=ADVANCED_FACE('Corps principal',(#450),#432,.T.) ;
#477=ADVANCED_FACE('Corps principal',(#476),#456,.F.) ;
#497=ADVANCED_FACE('Corps principal',(#496),#482,.T.) ;
#509=ADVANCED_FACE('Corps principal',(#508),#502,.F.) ;
#4=APPLICATION_PROTOCOL_DEFINITION('international standard','config_control_design',1994,#1) ;
#32=APPROVAL_DATE_TIME(#13,#21) ;
#510=MANIFOLD_SOLID_BREP('Corps principal',#51) ;
#11=CALENDAR_DATE(2023,29,8) ;
#30=CC_DESIGN_APPROVAL(#21,(#16,#6,#14)) ;
#18=CC_DESIGN_DATE_AND_TIME_ASSIGNMENT(#13,#17,(#16)) ;
#29=CC_DESIGN_DATE_AND_TIME_ASSIGNMENT(#13,#28,(#14)) ;
#17=DATE_TIME_ROLE('classification_date') ;
#28=DATE_TIME_ROLE('creation_date') ;
#27=CC_DESIGN_PERSON_AND_ORGANIZATION_ASSIGNMENT(#25,#26,(#16)) ;
#33=CC_DESIGN_PERSON_AND_ORGANIZATION_ASSIGNMENT(#25,#34,(#6)) ;
#35=CC_DESIGN_PERSON_AND_ORGANIZATION_ASSIGNMENT(#25,#36,(#6,#14)) ;
#37=CC_DESIGN_PERSON_AND_ORGANIZATION_ASSIGNMENT(#25,#38,(#5)) ;
#26=PERSON_AND_ORGANIZATION_ROLE('classification_officer') ;
#34=PERSON_AND_ORGANIZATION_ROLE('design_supplier') ;
#36=PERSON_AND_ORGANIZATION_ROLE('creator') ;
#38=PERSON_AND_ORGANIZATION_ROLE('design_owner') ;
#39=CC_DESIGN_SECURITY_CLASSIFICATION(#16,(#6)) ;
#109=CIRCLE('generated circle',#108,3.) ;
#123=CIRCLE('generated circle',#122,3.) ;
#149=CIRCLE('generated circle',#148,3.) ;
#163=CIRCLE('generated circle',#162,3.) ;
#180=CIRCLE('generated circle',#179,4.5) ;
#196=CIRCLE('generated circle',#195,4.5) ;
#215=CIRCLE('generated circle',#214,4.5) ;
#220=CIRCLE('generated circle',#219,4.5) ;
#253=CIRCLE('generated circle',#252,4.5) ;
#262=CIRCLE('generated circle',#261,4.5) ;
#297=CIRCLE('generated circle',#296,4.5) ;
#306=CIRCLE('generated circle',#305,4.5) ;
#512=SHAPE_REPRESENTATION_RELATIONSHIP(' ',' ',#49,#511) ;
#96=CYLINDRICAL_SURFACE('generated cylinder',#95,3.) ;
#136=CYLINDRICAL_SURFACE('generated cylinder',#135,3.) ;
#176=CYLINDRICAL_SURFACE('generated cylinder',#175,4.5) ;
#321=CYLINDRICAL_SURFACE('generated cylinder',#320,4.5) ;
#3=DESIGN_CONTEXT(' ',#1,'design') ;
#65=EDGE_CURVE('',#62,#64,#60,.T.) ;
#72=EDGE_CURVE('',#62,#71,#69,.T.) ;
#79=EDGE_CURVE('',#71,#78,#76,.T.) ;
#84=EDGE_CURVE('',#64,#78,#83,.T.) ;
#105=EDGE_CURVE('',#102,#104,#100,.T.) ;
#112=EDGE_CURVE('',#102,#111,#109,.F.) ;
#119=EDGE_CURVE('',#111,#118,#116,.T.) ;
#124=EDGE_CURVE('',#104,#118,#123,.F.) ;
#145=EDGE_CURVE('',#142,#144,#140,.T.) ;
#152=EDGE_CURVE('',#142,#151,#149,.T.) ;
#159=EDGE_CURVE('',#151,#158,#156,.T.) ;
#164=EDGE_CURVE('',#144,#158,#163,.T.) ;
#185=EDGE_CURVE('',#182,#184,#180,.T.) ;
#192=EDGE_CURVE('',#191,#184,#189,.T.) ;
#199=EDGE_CURVE('',#198,#191,#196,.T.) ;
#204=EDGE_CURVE('',#198,#182,#203,.T.) ;
#216=EDGE_CURVE('',#184,#182,#215,.T.) ;
#221=EDGE_CURVE('',#191,#198,#220,.T.) ;
#238=EDGE_CURVE('',#151,#62,#237,.T.) ;
#243=EDGE_CURVE('',#158,#64,#242,.T.) ;
#258=EDGE_CURVE('',#255,#257,#253,.T.) ;
#263=EDGE_CURVE('',#257,#255,#262,.T.) ;
#282=EDGE_CURVE('',#71,#102,#281,.T.) ;
#287=EDGE_CURVE('',#78,#104,#286,.T.) ;
#302=EDGE_CURVE('',#299,#301,#297,.T.) ;
#307=EDGE_CURVE('',#301,#299,#306,.T.) ;
#326=EDGE_CURVE('',#257,#299,#325,.F.) ;
#331=EDGE_CURVE('',#255,#301,#330,.F.) ;
#357=EDGE_CURVE('',#356,#111,#354,.T.) ;
#362=EDGE_CURVE('',#356,#142,#361,.F.) ;
#384=EDGE_CURVE('',#383,#356,#381,.F.) ;
#391=EDGE_CURVE('',#383,#390,#388,.T.) ;
#396=EDGE_CURVE('',#111,#390,#395,.T.) ;
#415=EDGE_CURVE('',#390,#414,#412,.T.) ;
#420=EDGE_CURVE('',#118,#414,#419,.T.) ;
#439=EDGE_CURVE('',#383,#438,#436,.T.) ;
#444=EDGE_CURVE('',#438,#414,#443,.T.) ;
#463=EDGE_CURVE('',#438,#462,#460,.F.) ;
#468=EDGE_CURVE('',#462,#144,#467,.F.) ;
#487=EDGE_CURVE('',#462,#118,#486,.T.) ;
#85=EDGE_LOOP('',(#86,#87,#88,#89)) ;
#125=EDGE_LOOP('',(#126,#127,#128,#129)) ;
#165=EDGE_LOOP('',(#166,#167,#168,#169)) ;
#205=EDGE_LOOP('',(#206,#207,#208,#209)) ;
#222=EDGE_LOOP('',(#223,#224,#225,#226)) ;
#244=EDGE_LOOP('',(#245,#246,#247,#248)) ;
#264=EDGE_LOOP('',(#265,#266)) ;
#268=EDGE_LOOP('',(#269,#270)) ;
#288=EDGE_LOOP('',(#289,#290,#291,#292)) ;
#308=EDGE_LOOP('',(#309,#310)) ;
#312=EDGE_LOOP('',(#313,#314)) ;
#332=EDGE_LOOP('',(#333,#334,#335,#336)) ;
#339=EDGE_LOOP('',(#340,#341,#342,#343)) ;
#363=EDGE_LOOP('',(#364,#365,#366,#367,#368,#369,#370)) ;
#397=EDGE_LOOP('',(#398,#399,#400,#401)) ;
#421=EDGE_LOOP('',(#422,#423,#424,#425)) ;
#445=EDGE_LOOP('',(#446,#447,#448,#449)) ;
#469=EDGE_LOOP('',(#470,#471,#472,#473,#474,#475)) ;
#488=EDGE_LOOP('',(#489,#490,#491,#492,#493,#494,#495)) ;
#503=EDGE_LOOP('',(#504,#505,#506,#507)) ;
#90=FACE_OUTER_BOUND('',#85,.T.) ;
#130=FACE_OUTER_BOUND('',#125,.T.) ;
#170=FACE_OUTER_BOUND('',#165,.T.) ;
#210=FACE_OUTER_BOUND('',#205,.T.) ;
#227=FACE_OUTER_BOUND('',#222,.T.) ;
#249=FACE_OUTER_BOUND('',#244,.T.) ;
#293=FACE_OUTER_BOUND('',#288,.T.) ;
#337=FACE_OUTER_BOUND('',#332,.T.) ;
#344=FACE_OUTER_BOUND('',#339,.T.) ;
#371=FACE_OUTER_BOUND('',#363,.T.) ;
#402=FACE_OUTER_BOUND('',#397,.T.) ;
#426=FACE_OUTER_BOUND('',#421,.T.) ;
#450=FACE_OUTER_BOUND('',#445,.T.) ;
#476=FACE_OUTER_BOUND('',#469,.T.) ;
#496=FACE_OUTER_BOUND('',#488,.T.) ;
#508=FACE_OUTER_BOUND('',#503,.T.) ;
#45=UNCERTAINTY_MEASURE_WITH_UNIT(LENGTH_MEASURE(0.005),#41,'distance_accuracy_value','CONFUSED CURVE UNCERTAINTY') ;
#60=LINE('Line',#57,#59) ;
#69=LINE('Line',#66,#68) ;
#76=LINE('Line',#73,#75) ;
#83=LINE('Line',#80,#82) ;
#100=LINE('Line',#97,#99) ;
#116=LINE('Line',#113,#115) ;
#140=LINE('Line',#137,#139) ;
#156=LINE('Line',#153,#155) ;
#189=LINE('Line',#186,#188) ;
#203=LINE('Line',#200,#202) ;
#237=LINE('Line',#234,#236) ;
#242=LINE('Line',#239,#241) ;
#281=LINE('Line',#278,#280) ;
#286=LINE('Line',#283,#285) ;
#325=LINE('Line',#322,#324) ;
#330=LINE('Line',#327,#329) ;
#354=LINE('Line',#351,#353) ;
#361=LINE('Line',#358,#360) ;
#381=LINE('Line',#378,#380) ;
#388=LINE('Line',#385,#387) ;
#395=LINE('Line',#392,#394) ;
#412=LINE('Line',#409,#411) ;
#419=LINE('Line',#416,#418) ;
#436=LINE('Line',#433,#435) ;
#443=LINE('Line',#440,#442) ;
#460=LINE('Line',#457,#459) ;
#467=LINE('Line',#464,#466) ;
#486=LINE('Line',#483,#485) ;
#2=MECHANICAL_CONTEXT(' ',#1,'mechanical') ;
#24=PERSONAL_ADDRESS(' ',' ',' ',' ',' ',' ',' ',' ',' ',' ',' ',' ',(#22),' ') ;
#56=PLANE('Plane',#55) ;
#233=PLANE('Plane',#232) ;
#277=PLANE('Plane',#276) ;
#350=PLANE('Plane',#349) ;
#377=PLANE('Plane',#376) ;
#408=PLANE('Plane',#407) ;
#432=PLANE('Plane',#431) ;
#456=PLANE('Plane',#455) ;
#482=PLANE('Plane',#481) ;
#502=PLANE('Plane',#501) ;
#43=PLANE_ANGLE_MEASURE_WITH_UNIT(PLANE_ANGLE_MEASURE(0.0174532925199),#42) ;
#7=PRODUCT_CATEGORY('part',$) ;
#9=PRODUCT_CATEGORY_RELATIONSHIP(' ',' ',#7,#8) ;
#6=PRODUCT_DEFINITION_FORMATION_WITH_SPECIFIED_SOURCE('',' ',#5,.NOT_KNOWN.) ;
#8=PRODUCT_RELATED_PRODUCT_CATEGORY('detail',$,(#5)) ;
#50=SHAPE_DEFINITION_REPRESENTATION(#40,#49) ;
#62=VERTEX_POINT('',#61) ;
#64=VERTEX_POINT('',#63) ;
#71=VERTEX_POINT('',#70) ;
#78=VERTEX_POINT('',#77) ;
#102=VERTEX_POINT('',#101) ;
#104=VERTEX_POINT('',#103) ;
#111=VERTEX_POINT('',#110) ;
#118=VERTEX_POINT('',#117) ;
#142=VERTEX_POINT('',#141) ;
#144=VERTEX_POINT('',#143) ;
#151=VERTEX_POINT('',#150) ;
#158=VERTEX_POINT('',#157) ;
#182=VERTEX_POINT('',#181) ;
#184=VERTEX_POINT('',#183) ;
#191=VERTEX_POINT('',#190) ;
#198=VERTEX_POINT('',#197) ;
#255=VERTEX_POINT('',#254) ;
#257=VERTEX_POINT('',#256) ;
#299=VERTEX_POINT('',#298) ;
#301=VERTEX_POINT('',#300) ;
#356=VERTEX_POINT('',#355) ;
#383=VERTEX_POINT('',#382) ;
#390=VERTEX_POINT('',#389) ;
#414=VERTEX_POINT('',#413) ;
#438=VERTEX_POINT('',#437) ;
#462=VERTEX_POINT('',#461) ;
#41=(LENGTH_UNIT()NAMED_UNIT(*)SI_UNIT(.MILLI.,.METRE.)) ;
#42=(NAMED_UNIT(*)PLANE_ANGLE_UNIT()SI_UNIT($,.RADIAN.)) ;
#44=(NAMED_UNIT(*)SI_UNIT($,.STERADIAN.)SOLID_ANGLE_UNIT()) ;
#46=(GEOMETRIC_REPRESENTATION_CONTEXT(3)GLOBAL_UNCERTAINTY_ASSIGNED_CONTEXT((#45))GLOBAL_UNIT_ASSIGNED_CONTEXT((#41,#42,#44))REPRESENTATION_CONTEXT(' ',' ')) ;
ENDSEC;
END-ISO-10303-21;
