ISO-10303-21;
HEADER;
FILE_DESCRIPTION (( 'STEP AP203' ),
    '1' );
FILE_NAME ('Etage A.STEP',
    '2023-07-25T16:52:06',
    ( '' ),
    ( '' ),
    'SwSTEP 2.0',
    'SolidWorks 2022',
    '' );
FILE_SCHEMA (( 'CONFIG_CONTROL_DESIGN' ));
ENDSEC;

DATA;
#1 = ORIENTED_EDGE ( 'NONE', *, *, #306, .T. ) ;
#2 = LINE ( 'NONE', #261, #116 ) ;
#3 = PERSON_AND_ORGANIZATION ( #186, #166 ) ;
#4 = VECTOR ( 'NONE', #126, 1000.000000000000000 ) ;
#5 = CARTESIAN_POINT ( 'NONE',  ( 12.00000000000000000, 1.000000000000000444, 0.000000000000000000 ) ) ;
#6 = CC_DESIGN_APPROVAL ( #231, ( #152 ) ) ;
#7 = DIRECTION ( 'NONE',  ( -1.000000000000000000, -1.495451272393799296E-16, -0.000000000000000000 ) ) ;
#8 = APPLICATION_CONTEXT ( 'configuration controlled 3d designs of mechanical parts and assemblies' ) ;
#9 = APPROVAL_ROLE ( '' ) ;
#10 = DIRECTION ( 'NONE',  ( 0.000000000000000000, 0.000000000000000000, 1.000000000000000000 ) ) ;
#11 = EDGE_CURVE ( 'NONE', #283, #250, #358, .T. ) ;
#12 = DIRECTION ( 'NONE',  ( -0.000000000000000000, -0.000000000000000000, -1.000000000000000000 ) ) ;
#13 = VECTOR ( 'NONE', #312, 1000.000000000000000 ) ;
#14 = SECURITY_CLASSIFICATION ( '', '', #98 ) ;
#15 = CARTESIAN_POINT ( 'NONE',  ( 12.00000000000000000, 1.000000000000000444, 0.2000000000000000111 ) ) ;
#16 = FACE_OUTER_BOUND ( 'NONE', #160, .T. ) ;
#17 = DIRECTION ( 'NONE',  ( 1.000000000000000000, 0.000000000000000000, 0.000000000000000000 ) ) ;
#18 = VECTOR ( 'NONE', #192, 1000.000000000000000 ) ;
#19 =( GEOMETRIC_REPRESENTATION_CONTEXT ( 3 ) GLOBAL_UNCERTAINTY_ASSIGNED_CONTEXT ( ( #74 ) ) GLOBAL_UNIT_ASSIGNED_CONTEXT ( ( #22, #55, #374 ) ) REPRESENTATION_CONTEXT ( 'NONE', 'WORKASPACE' ) );
#20 = LINE ( 'NONE', #49, #158 ) ;
#21 = ORIENTED_EDGE ( 'NONE', *, *, #354, .F. ) ;
#22 =( LENGTH_UNIT ( ) NAMED_UNIT ( * ) SI_UNIT ( .MILLI., .METRE. ) );
#23 = VERTEX_POINT ( 'NONE', #92 ) ;
#24 = APPLICATION_CONTEXT ( 'configuration controlled 3d designs of mechanical parts and assemblies' ) ;
#25 = ADVANCED_FACE ( 'NONE', ( #145, #146, #59 ), #356, .F. ) ;
#26 = CARTESIAN_POINT ( 'NONE',  ( 12.00000000000000000, 1.000000000000000444, 0.2000000000000000111 ) ) ;
#27 = ORIENTED_EDGE ( 'NONE', *, *, #379, .T. ) ;
#28 = APPROVAL_STATUS ( 'not_yet_approved' ) ;
#29 = ORIENTED_EDGE ( 'NONE', *, *, #53, .F. ) ;
#30 = COORDINATED_UNIVERSAL_TIME_OFFSET ( 1, 0, .AHEAD. ) ;
#31 = CARTESIAN_POINT ( 'NONE',  ( 9.099999999999999645, 1.000000000000000000, 0.2000000000000000111 ) ) ;
#32 = CC_DESIGN_DATE_AND_TIME_ASSIGNMENT ( #266, #167, ( #152 ) ) ;
#33 = DIRECTION ( 'NONE',  ( 0.000000000000000000, 0.000000000000000000, 1.000000000000000000 ) ) ;
#34 = FACE_OUTER_BOUND ( 'NONE', #340, .T. ) ;
#35 = ORIENTED_EDGE ( 'NONE', *, *, #133, .F. ) ;
#36 = APPROVAL_ROLE ( '' ) ;
#37 = EDGE_CURVE ( 'NONE', #250, #321, #2, .T. ) ;
#38 = ORIENTED_EDGE ( 'NONE', *, *, #43, .F. ) ;
#39 = AXIS2_PLACEMENT_3D ( 'NONE', #210, #102, #271 ) ;
#40 = CARTESIAN_POINT ( 'NONE',  ( -16.00000000000000000, 0.000000000000000000, 0.000000000000000000 ) ) ;
#41 = PERSON_AND_ORGANIZATION_ROLE ( 'creator' ) ;
#42 = DIRECTION ( 'NONE',  ( -0.000000000000000000, -0.000000000000000000, -1.000000000000000000 ) ) ;
#43 = EDGE_CURVE ( 'NONE', #23, #235, #294, .T. ) ;
#44 = CARTESIAN_POINT ( 'NONE',  ( 12.00000000000000000, -0.9999999999999991118, 0.2000000000000000111 ) ) ;
#45 = FACE_OUTER_BOUND ( 'NONE', #197, .T. ) ;
#46 = AXIS2_PLACEMENT_3D ( 'NONE', #169, #325, #63 ) ;
#47 = CARTESIAN_POINT ( 'NONE',  ( 12.00000000000000000, -0.9999999999999995559, 0.000000000000000000 ) ) ;
#48 = ORIENTED_EDGE ( 'NONE', *, *, #239, .F. ) ;
#49 = CARTESIAN_POINT ( 'NONE',  ( 9.099999999999999645, 1.000000000000000000, 0.2000000000000000111 ) ) ;
#50 = ORIENTED_EDGE ( 'NONE', *, *, #306, .F. ) ;
#51 = CARTESIAN_POINT ( 'NONE',  ( 0.000000000000000000, 0.000000000000000000, 0.2000000000000000111 ) ) ;
#52 = ORIENTED_EDGE ( 'NONE', *, *, #202, .F. ) ;
#53 = EDGE_CURVE ( 'NONE', #289, #378, #142, .T. ) ;
#54 = ORIENTED_EDGE ( 'NONE', *, *, #133, .T. ) ;
#55 =( NAMED_UNIT ( * ) PLANE_ANGLE_UNIT ( ) SI_UNIT ( $, .RADIAN. ) );
#56 = ORIENTED_EDGE ( 'NONE', *, *, #163, .T. ) ;
#57 = ORIENTED_EDGE ( 'NONE', *, *, #68, .T. ) ;
#58 = CARTESIAN_POINT ( 'NONE',  ( -16.00000000000000000, 0.000000000000000000, 0.2000000000000000111 ) ) ;
#59 = FACE_BOUND ( 'NONE', #203, .T. ) ;
#60 = ORIENTED_EDGE ( 'NONE', *, *, #156, .F. ) ;
#61 = APPROVAL_DATE_TIME ( #181, #226 ) ;
#62 = ADVANCED_FACE ( 'NONE', ( #115 ), #296, .T. ) ;
#63 = DIRECTION ( 'NONE',  ( 1.000000000000000000, 1.495451272393799542E-16, 0.000000000000000000 ) ) ;
#64 = FACE_OUTER_BOUND ( 'NONE', #168, .T. ) ;
#65 = AXIS2_PLACEMENT_3D ( 'NONE', #290, #33, #291 ) ;
#66 = DIRECTION ( 'NONE',  ( 1.000000000000000000, 0.000000000000000000, 0.000000000000000000 ) ) ;
#67 = APPROVAL_PERSON_ORGANIZATION ( #178, #293, #36 ) ;
#68 = EDGE_CURVE ( 'NONE', #196, #76, #176, .T. ) ;
#69 = COORDINATED_UNIVERSAL_TIME_OFFSET ( 1, 0, .AHEAD. ) ;
#70 = CARTESIAN_POINT ( 'NONE',  ( 9.099999999999999645, 1.000000000000000000, 0.000000000000000000 ) ) ;
#71 = FACE_BOUND ( 'NONE', #236, .T. ) ;
#72 = CARTESIAN_POINT ( 'NONE',  ( -1.000000000000000000, 0.000000000000000000, 0.2000000000000000111 ) ) ;
#73 = VECTOR ( 'NONE', #7, 1000.000000000000000 ) ;
#74 = UNCERTAINTY_MEASURE_WITH_UNIT (LENGTH_MEASURE( 1.000000000000000082E-05 ), #22, 'distance_accuracy_value', 'NONE');
#75 = DIRECTION ( 'NONE',  ( -1.000000000000000000, 0.000000000000000000, 0.000000000000000000 ) ) ;
#76 = VERTEX_POINT ( 'NONE', #87 ) ;
#77 = CYLINDRICAL_SURFACE ( 'NONE', #123, 16.00000000000000000 ) ;
#78 = EDGE_LOOP ( 'NONE', ( #255, #385, #376, #29 ) ) ;
#79 = DIRECTION ( 'NONE',  ( -0.000000000000000000, -0.000000000000000000, -1.000000000000000000 ) ) ;
#80 = ORIENTED_EDGE ( 'NONE', *, *, #183, .F. ) ;
#81 = ADVANCED_FACE ( 'NONE', ( #350 ), #85, .T. ) ;
#82 = DIRECTION ( 'NONE',  ( 1.000000000000000000, 0.000000000000000000, 0.000000000000000000 ) ) ;
#83 = ORIENTED_EDGE ( 'NONE', *, *, #163, .F. ) ;
#84 = PERSON_AND_ORGANIZATION ( #186, #166 ) ;
#85 = PLANE ( 'NONE',  #245 ) ;
#86 = DIRECTION ( 'NONE',  ( 0.000000000000000000, 0.000000000000000000, 1.000000000000000000 ) ) ;
#87 = CARTESIAN_POINT ( 'NONE',  ( -1.000000000000000000, 0.000000000000000000, 0.000000000000000000 ) ) ;
#88 = ORIENTED_EDGE ( 'NONE', *, *, #383, .F. ) ;
#89 = PRODUCT ( 'Etage A', 'Etage A', '', ( #221 ) ) ;
#90 = EDGE_CURVE ( 'NONE', #317, #155, #320, .T. ) ;
#91 = AXIS2_PLACEMENT_3D ( 'NONE', #309, #345, #164 ) ;
#92 = CARTESIAN_POINT ( 'NONE',  ( 9.099999999999999645, -1.000000000000000000, 0.2000000000000000111 ) ) ;
#93 = COORDINATED_UNIVERSAL_TIME_OFFSET ( 1, 0, .AHEAD. ) ;
#94 = CARTESIAN_POINT ( 'NONE',  ( 1.000000000000000000, 1.224646799147353207E-16, 0.2000000000000000111 ) ) ;
#95 = CALENDAR_DATE ( 2023, 25, 7 ) ;
#96 = EDGE_CURVE ( 'NONE', #196, #106, #359, .T. ) ;
#97 = CARTESIAN_POINT ( 'NONE',  ( 0.000000000000000000, 0.000000000000000000, 0.2000000000000000111 ) ) ;
#98 = SECURITY_CLASSIFICATION_LEVEL ( 'unclassified' ) ;
#99 = VECTOR ( 'NONE', #375, 1000.000000000000000 ) ;
#100 = CARTESIAN_POINT ( 'NONE',  ( 9.099999999999999645, 1.000000000000000000, 0.2000000000000000111 ) ) ;
#101 = DIRECTION ( 'NONE',  ( 0.000000000000000000, 1.000000000000000000, -0.000000000000000000 ) ) ;
#102 = DIRECTION ( 'NONE',  ( -1.495451272393799542E-16, 1.000000000000000000, 0.000000000000000000 ) ) ;
#103 = ADVANCED_FACE ( 'NONE', ( #34 ), #144, .T. ) ;
#104 = CARTESIAN_POINT ( 'NONE',  ( 16.00000000000000000, 1.959434878635765131E-15, 0.2000000000000000111 ) ) ;
#105 = CLOSED_SHELL ( 'NONE', ( #298, #198, #348, #103, #253, #81, #62, #25, #372, #281 ) ) ;
#106 = VERTEX_POINT ( 'NONE', #94 ) ;
#107 = DIRECTION ( 'NONE',  ( 1.000000000000000000, 0.000000000000000000, 0.000000000000000000 ) ) ;
#108 = ORIENTED_EDGE ( 'NONE', *, *, #334, .T. ) ;
#109 = VECTOR ( 'NONE', #125, 1000.000000000000000 ) ;
#110 = PERSON_AND_ORGANIZATION_ROLE ( 'design_owner' ) ;
#111 = EDGE_LOOP ( 'NONE', ( #162, #381 ) ) ;
#112 = PRODUCT_DEFINITION_SHAPE ( 'NONE', 'NONE',  #152 ) ;
#113 = APPROVAL_STATUS ( 'not_yet_approved' ) ;
#114 = ORIENTED_EDGE ( 'NONE', *, *, #183, .T. ) ;
#115 = FACE_OUTER_BOUND ( 'NONE', #260, .T. ) ;
#116 = VECTOR ( 'NONE', #121, 1000.000000000000000 ) ;
#117 = LOCAL_TIME ( 18, 52, 6.000000000000000000, #122 ) ;
#118 = ORIENTED_EDGE ( 'NONE', *, *, #96, .T. ) ;
#119 = EDGE_CURVE ( 'NONE', #317, #347, #351, .T. ) ;
#120 = ORIENTED_EDGE ( 'NONE', *, *, #43, .T. ) ;
#121 = DIRECTION ( 'NONE',  ( 0.000000000000000000, -1.000000000000000000, 0.000000000000000000 ) ) ;
#122 = COORDINATED_UNIVERSAL_TIME_OFFSET ( 1, 0, .AHEAD. ) ;
#123 = AXIS2_PLACEMENT_3D ( 'NONE', #284, #282, #75 ) ;
#124 = CARTESIAN_POINT ( 'NONE',  ( 9.099999999999999645, -1.000000000000000000, 0.2000000000000000111 ) ) ;
#125 = DIRECTION ( 'NONE',  ( -0.000000000000000000, -0.000000000000000000, -1.000000000000000000 ) ) ;
#126 = DIRECTION ( 'NONE',  ( 1.000000000000000000, 1.495451272393799296E-16, 0.000000000000000000 ) ) ;
#127 = VECTOR ( 'NONE', #174, 1000.000000000000000 ) ;
#128 = LINE ( 'NONE', #276, #179 ) ;
#129 = DIRECTION ( 'NONE',  ( 0.000000000000000000, 0.000000000000000000, 1.000000000000000000 ) ) ;
#130 = EDGE_CURVE ( 'NONE', #347, #317, #330, .T. ) ;
#131 = CARTESIAN_POINT ( 'NONE',  ( 1.000000000000000000, 1.224646799147353207E-16, 0.000000000000000000 ) ) ;
#132 = CYLINDRICAL_SURFACE ( 'NONE', #285, 1.000000000000000000 ) ;
#133 = EDGE_CURVE ( 'NONE', #347, #265, #215, .T. ) ;
#134 = ORIENTED_EDGE ( 'NONE', *, *, #130, .T. ) ;
#135 = ORIENTED_EDGE ( 'NONE', *, *, #90, .T. ) ;
#136 = DIRECTION ( 'NONE',  ( -1.000000000000000000, 0.000000000000000000, 0.000000000000000000 ) ) ;
#137 = ORIENTED_EDGE ( 'NONE', *, *, #11, .T. ) ;
#138 = VECTOR ( 'NONE', #237, 1000.000000000000000 ) ;
#139 = DATE_AND_TIME ( #209, #159 ) ;
#140 = VERTEX_POINT ( 'NONE', #15 ) ;
#141 = ORIENTED_EDGE ( 'NONE', *, *, #68, .F. ) ;
#142 = LINE ( 'NONE', #5, #336 ) ;
#143 = EDGE_CURVE ( 'NONE', #265, #155, #304, .T. ) ;
#144 = PLANE ( 'NONE',  #256 ) ;
#145 = FACE_BOUND ( 'NONE', #200, .T. ) ;
#146 = FACE_OUTER_BOUND ( 'NONE', #111, .T. ) ;
#147 = AXIS2_PLACEMENT_3D ( 'NONE', #153, #275, #218 ) ;
#148 = PRODUCT_DEFINITION_FORMATION_WITH_SPECIFIED_SOURCE ( 'ANY', '', #89, .NOT_KNOWN. ) ;
#149 = CARTESIAN_POINT ( 'NONE',  ( 9.099999999999999645, -1.000000000000000000, 0.000000000000000000 ) ) ;
#150 = CARTESIAN_POINT ( 'NONE',  ( 0.000000000000000000, 0.000000000000000000, 0.2000000000000000111 ) ) ;
#151 = DIRECTION ( 'NONE',  ( 1.000000000000000000, 0.000000000000000000, 0.000000000000000000 ) ) ;
#152 = PRODUCT_DEFINITION ( 'UNKNOWN', '', #148, #369 ) ;
#153 = CARTESIAN_POINT ( 'NONE',  ( 0.000000000000000000, 0.000000000000000000, 0.2000000000000000111 ) ) ;
#154 = CARTESIAN_POINT ( 'NONE',  ( 0.000000000000000000, 0.000000000000000000, 0.000000000000000000 ) ) ;
#155 = VERTEX_POINT ( 'NONE', #40 ) ;
#156 = EDGE_CURVE ( 'NONE', #235, #140, #273, .T. ) ;
#157 = CARTESIAN_POINT ( 'NONE',  ( 12.00000000000000000, 1.000000000000000444, 0.000000000000000000 ) ) ;
#158 = VECTOR ( 'NONE', #339, 1000.000000000000000 ) ;
#159 = LOCAL_TIME ( 18, 52, 6.000000000000000000, #69 ) ;
#160 = EDGE_LOOP ( 'NONE', ( #118, #315, #83, #141 ) ) ;
#161 = ORIENTED_EDGE ( 'NONE', *, *, #202, .T. ) ;
#162 = ORIENTED_EDGE ( 'NONE', *, *, #379, .F. ) ;
#163 = EDGE_CURVE ( 'NONE', #76, #342, #299, .T. ) ;
#164 = DIRECTION ( 'NONE',  ( -1.000000000000000000, 0.000000000000000000, 0.000000000000000000 ) ) ;
#165 = ORIENTED_EDGE ( 'NONE', *, *, #119, .T. ) ;
#166 = ORGANIZATION ( 'UNSPECIFIED', 'UNSPECIFIED', '' ) ;
#167 = DATE_TIME_ROLE ( 'creation_date' ) ;
#168 = EDGE_LOOP ( 'NONE', ( #310, #54, #191, #193 ) ) ;
#169 = CARTESIAN_POINT ( 'NONE',  ( 9.099999999999999645, 1.000000000000000000, 0.2000000000000000111 ) ) ;
#170 = CC_DESIGN_DATE_AND_TIME_ASSIGNMENT ( #240, #360, ( #14 ) ) ;
#171 = DIRECTION ( 'NONE',  ( -0.000000000000000000, -0.000000000000000000, -1.000000000000000000 ) ) ;
#172 = AXIS2_PLACEMENT_3D ( 'NONE', #51, #254, #107 ) ;
#173 = LOCAL_TIME ( 18, 52, 6.000000000000000000, #30 ) ;
#174 = DIRECTION ( 'NONE',  ( -0.000000000000000000, -0.000000000000000000, -1.000000000000000000 ) ) ;
#175 = PERSON_AND_ORGANIZATION_ROLE ( 'design_supplier' ) ;
#176 = LINE ( 'NONE', #204, #187 ) ;
#177 = DIRECTION ( 'NONE',  ( 1.000000000000000000, 0.000000000000000000, 0.000000000000000000 ) ) ;
#178 = PERSON_AND_ORGANIZATION ( #186, #166 ) ;
#179 = VECTOR ( 'NONE', #217, 1000.000000000000000 ) ;
#180 = CARTESIAN_POINT ( 'NONE',  ( 0.000000000000000000, 0.000000000000000000, 0.2000000000000000111 ) ) ;
#181 = DATE_AND_TIME ( #95, #344 ) ;
#182 = DIRECTION ( 'NONE',  ( -0.000000000000000000, 0.000000000000000000, -1.000000000000000000 ) ) ;
#183 = EDGE_CURVE ( 'NONE', #342, #76, #185, .T. ) ;
#184 = FACE_BOUND ( 'NONE', #205, .T. ) ;
#185 = CIRCLE ( 'NONE', #195, 1.000000000000000000 ) ;
#186 = PERSON ( 'UNSPECIFIED', 'UNSPECIFIED', 'UNSPECIFIED', ('UNSPECIFIED'), ('UNSPECIFIED'), ('UNSPECIFIED') ) ;
#187 = VECTOR ( 'NONE', #232, 1000.000000000000000 ) ;
#188 = DIRECTION ( 'NONE',  ( 0.000000000000000000, 0.000000000000000000, 1.000000000000000000 ) ) ;
#189 = APPROVAL_PERSON_ORGANIZATION ( #84, #231, #324 ) ;
#190 = LINE ( 'NONE', #194, #13 ) ;
#191 = ORIENTED_EDGE ( 'NONE', *, *, #143, .T. ) ;
#192 = DIRECTION ( 'NONE',  ( -0.000000000000000000, -0.000000000000000000, -1.000000000000000000 ) ) ;
#193 = ORIENTED_EDGE ( 'NONE', *, *, #90, .F. ) ;
#194 = CARTESIAN_POINT ( 'NONE',  ( 1.000000000000000000, 1.224646799147353207E-16, 0.2000000000000000111 ) ) ;
#195 = AXIS2_PLACEMENT_3D ( 'NONE', #154, #365, #327 ) ;
#196 = VERTEX_POINT ( 'NONE', #72 ) ;
#197 = EDGE_LOOP ( 'NONE', ( #21, #120, #308, #230 ) ) ;
#198 = ADVANCED_FACE ( 'NONE', ( #64 ), #332, .T. ) ;
#199 = FACE_OUTER_BOUND ( 'NONE', #280, .T. ) ;
#200 = EDGE_LOOP ( 'NONE', ( #56, #114 ) ) ;
#201 = CARTESIAN_POINT ( 'NONE',  ( 12.00000000000000000, 1.000000000000000444, 0.2000000000000000111 ) ) ;
#202 = EDGE_CURVE ( 'NONE', #140, #283, #128, .T. ) ;
#203 = EDGE_LOOP ( 'NONE', ( #323, #257, #373, #225 ) ) ;
#204 = CARTESIAN_POINT ( 'NONE',  ( -1.000000000000000000, 0.000000000000000000, 0.2000000000000000111 ) ) ;
#205 = EDGE_LOOP ( 'NONE', ( #287, #222 ) ) ;
#206 = VECTOR ( 'NONE', #42, 1000.000000000000000 ) ;
#207 = PERSON_AND_ORGANIZATION_ROLE ( 'creator' ) ;
#208 = CARTESIAN_POINT ( 'NONE',  ( 0.000000000000000000, 0.000000000000000000, 0.000000000000000000 ) ) ;
#209 = CALENDAR_DATE ( 2023, 25, 7 ) ;
#210 = CARTESIAN_POINT ( 'NONE',  ( 9.099999999999999645, -1.000000000000000000, 0.2000000000000000111 ) ) ;
#211 = PERSON_AND_ORGANIZATION ( #186, #166 ) ;
#212 = CARTESIAN_POINT ( 'NONE',  ( 9.099999999999999645, 1.000000000000000000, 0.000000000000000000 ) ) ;
#213 = PERSON_AND_ORGANIZATION ( #186, #166 ) ;
#214 = AXIS2_PLACEMENT_3D ( 'NONE', #364, #242, #177 ) ;
#215 = LINE ( 'NONE', #241, #206 ) ;
#216 = EDGE_CURVE ( 'NONE', #321, #289, #297, .T. ) ;
#217 = DIRECTION ( 'NONE',  ( -1.000000000000000000, -1.495451272393799542E-16, 0.000000000000000000 ) ) ;
#218 = DIRECTION ( 'NONE',  ( 1.000000000000000000, 0.000000000000000000, -0.000000000000000000 ) ) ;
#219 = LOCAL_TIME ( 18, 52, 6.000000000000000000, #229 ) ;
#220 = FACE_OUTER_BOUND ( 'NONE', #382, .T. ) ;
#221 = MECHANICAL_CONTEXT ( 'NONE', #24, 'mechanical' ) ;
#222 = ORIENTED_EDGE ( 'NONE', *, *, #334, .F. ) ;
#223 = DIRECTION ( 'NONE',  ( 0.000000000000000000, 0.000000000000000000, 1.000000000000000000 ) ) ;
#224 = ORIENTED_EDGE ( 'NONE', *, *, #119, .F. ) ;
#225 = ORIENTED_EDGE ( 'NONE', *, *, #239, .T. ) ;
#226 = APPROVAL ( #28, 'UNSPECIFIED' ) ;
#227 = LINE ( 'NONE', #26, #99 ) ;
#228 = EDGE_LOOP ( 'NONE', ( #165, #134 ) ) ;
#229 = COORDINATED_UNIVERSAL_TIME_OFFSET ( 1, 0, .AHEAD. ) ;
#230 = ORIENTED_EDGE ( 'NONE', *, *, #216, .F. ) ;
#231 = APPROVAL ( #113, 'UNSPECIFIED' ) ;
#232 = DIRECTION ( 'NONE',  ( -0.000000000000000000, -0.000000000000000000, -1.000000000000000000 ) ) ;
#233 = AXIS2_PLACEMENT_3D ( 'NONE', #337, #223, #17 ) ;
#234 = MANIFOLD_SOLID_BREP ( 'Enlèv. mat.-Extru.1', #105 ) ;
#235 = VERTEX_POINT ( 'NONE', #44 ) ;
#236 = EDGE_LOOP ( 'NONE', ( #52, #60, #38, #50 ) ) ;
#237 = DIRECTION ( 'NONE',  ( 1.000000000000000000, 1.495451272393799542E-16, -0.000000000000000000 ) ) ;
#238 = AXIS2_PLACEMENT_3D ( 'NONE', #180, #12, #368 ) ;
#239 = EDGE_CURVE ( 'NONE', #378, #250, #244, .T. ) ;
#240 = DATE_AND_TIME ( #288, #117 ) ;
#241 = CARTESIAN_POINT ( 'NONE',  ( 16.00000000000000000, 1.959434878635765131E-15, 0.2000000000000000111 ) ) ;
#242 = DIRECTION ( 'NONE',  ( 0.000000000000000000, 0.000000000000000000, 1.000000000000000000 ) ) ;
#243 = CC_DESIGN_PERSON_AND_ORGANIZATION_ASSIGNMENT ( #259, #175, ( #148 ) ) ;
#244 = LINE ( 'NONE', #212, #73 ) ;
#245 = AXIS2_PLACEMENT_3D ( 'NONE', #201, #355, #86 ) ;
#246 = CC_DESIGN_APPROVAL ( #293, ( #14 ) ) ;
#247 = PLANE ( 'NONE',  #39 ) ;
#248 = DIRECTION ( 'NONE',  ( 1.000000000000000000, 0.000000000000000000, -0.000000000000000000 ) ) ;
#249 = APPLICATION_PROTOCOL_DEFINITION ( 'international standard', 'config_control_design', 1994, #8 ) ;
#250 = VERTEX_POINT ( 'NONE', #70 ) ;
#251 = CARTESIAN_POINT ( 'NONE',  ( 0.000000000000000000, 0.000000000000000000, 0.000000000000000000 ) ) ;
#252 = ORIENTED_EDGE ( 'NONE', *, *, #354, .T. ) ;
#253 = ADVANCED_FACE ( 'NONE', ( #45 ), #247, .T. ) ;
#254 = DIRECTION ( 'NONE',  ( 0.000000000000000000, 0.000000000000000000, 1.000000000000000000 ) ) ;
#255 = ORIENTED_EDGE ( 'NONE', *, *, #264, .F. ) ;
#256 = AXIS2_PLACEMENT_3D ( 'NONE', #100, #248, #182 ) ;
#257 = ORIENTED_EDGE ( 'NONE', *, *, #216, .T. ) ;
#258 = PRODUCT_RELATED_PRODUCT_CATEGORY ( 'detail', '', ( #89 ) ) ;
#259 = PERSON_AND_ORGANIZATION ( #186, #166 ) ;
#260 = EDGE_LOOP ( 'NONE', ( #313, #161, #137, #48 ) ) ;
#261 = CARTESIAN_POINT ( 'NONE',  ( 9.099999999999999645, 1.000000000000000000, 0.000000000000000000 ) ) ;
#262 = ORIENTED_EDGE ( 'NONE', *, *, #37, .F. ) ;
#263 = ORIENTED_EDGE ( 'NONE', *, *, #11, .F. ) ;
#264 = EDGE_CURVE ( 'NONE', #235, #289, #307, .T. ) ;
#265 = VERTEX_POINT ( 'NONE', #329 ) ;
#266 = DATE_AND_TIME ( #270, #219 ) ;
#267 = DIRECTION ( 'NONE',  ( 1.000000000000000000, 0.000000000000000000, -0.000000000000000000 ) ) ;
#268 = AXIS2_PLACEMENT_3D ( 'NONE', #150, #10, #151 ) ;
#269 = CC_DESIGN_APPROVAL ( #226, ( #148 ) ) ;
#270 = CALENDAR_DATE ( 2023, 25, 7 ) ;
#271 = DIRECTION ( 'NONE',  ( -1.000000000000000000, -1.495451272393799542E-16, 0.000000000000000000 ) ) ;
#272 = CC_DESIGN_PERSON_AND_ORGANIZATION_ASSIGNMENT ( #213, #362, ( #14 ) ) ;
#273 = LINE ( 'NONE', #363, #278 ) ;
#274 = DIRECTION ( 'NONE',  ( 1.000000000000000000, 0.000000000000000000, 0.000000000000000000 ) ) ;
#275 = DIRECTION ( 'NONE',  ( 0.000000000000000000, 0.000000000000000000, 1.000000000000000000 ) ) ;
#276 = CARTESIAN_POINT ( 'NONE',  ( 9.099999999999999645, 1.000000000000000000, 0.2000000000000000111 ) ) ;
#277 = LINE ( 'NONE', #286, #18 ) ;
#278 = VECTOR ( 'NONE', #101, 1000.000000000000000 ) ;
#279 = AXIS2_PLACEMENT_3D ( 'NONE', #251, #341, #82 ) ;
#280 = EDGE_LOOP ( 'NONE', ( #88, #108, #57, #80 ) ) ;
#281 = ADVANCED_FACE ( 'NONE', ( #71, #301, #184 ), #303, .T. ) ;
#282 = DIRECTION ( 'NONE',  ( -0.000000000000000000, -0.000000000000000000, -1.000000000000000000 ) ) ;
#283 = VERTEX_POINT ( 'NONE', #335 ) ;
#284 = CARTESIAN_POINT ( 'NONE',  ( 0.000000000000000000, 0.000000000000000000, 0.2000000000000000111 ) ) ;
#285 = AXIS2_PLACEMENT_3D ( 'NONE', #316, #79, #136 ) ;
#286 = CARTESIAN_POINT ( 'NONE',  ( 9.099999999999999645, -1.000000000000000000, 0.2000000000000000111 ) ) ;
#287 = ORIENTED_EDGE ( 'NONE', *, *, #96, .F. ) ;
#288 = CALENDAR_DATE ( 2023, 25, 7 ) ;
#289 = VERTEX_POINT ( 'NONE', #47 ) ;
#290 = CARTESIAN_POINT ( 'NONE',  ( 0.000000000000000000, 0.000000000000000000, 0.2000000000000000111 ) ) ;
#291 = DIRECTION ( 'NONE',  ( 1.000000000000000000, 0.000000000000000000, 0.000000000000000000 ) ) ;
#292 = CIRCLE ( 'NONE', #233, 16.00000000000000000 ) ;
#293 = APPROVAL ( #300, 'UNSPECIFIED' ) ;
#294 = LINE ( 'NONE', #124, #138 ) ;
#295 = PERSON_AND_ORGANIZATION ( #186, #166 ) ;
#296 = PLANE ( 'NONE',  #46 ) ;
#297 = LINE ( 'NONE', #149, #4 ) ;
#298 = ADVANCED_FACE ( 'NONE', ( #16 ), #361, .F. ) ;
#299 = CIRCLE ( 'NONE', #214, 1.000000000000000000 ) ;
#300 = APPROVAL_STATUS ( 'not_yet_approved' ) ;
#301 = FACE_OUTER_BOUND ( 'NONE', #228, .T. ) ;
#302 = CARTESIAN_POINT ( 'NONE',  ( 0.000000000000000000, 0.000000000000000000, 0.000000000000000000 ) ) ;
#303 = PLANE ( 'NONE',  #147 ) ;
#304 = CIRCLE ( 'NONE', #318, 16.00000000000000000 ) ;
#305 = CC_DESIGN_SECURITY_CLASSIFICATION ( #14, ( #148 ) ) ;
#306 = EDGE_CURVE ( 'NONE', #283, #23, #20, .T. ) ;
#307 = LINE ( 'NONE', #333, #109 ) ;
#308 = ORIENTED_EDGE ( 'NONE', *, *, #264, .T. ) ;
#309 = CARTESIAN_POINT ( 'NONE',  ( 0.000000000000000000, 0.000000000000000000, 0.2000000000000000111 ) ) ;
#310 = ORIENTED_EDGE ( 'NONE', *, *, #130, .F. ) ;
#311 = CC_DESIGN_PERSON_AND_ORGANIZATION_ASSIGNMENT ( #377, #110, ( #89 ) ) ;
#312 = DIRECTION ( 'NONE',  ( -0.000000000000000000, -0.000000000000000000, -1.000000000000000000 ) ) ;
#313 = ORIENTED_EDGE ( 'NONE', *, *, #322, .F. ) ;
#314 = APPLICATION_PROTOCOL_DEFINITION ( 'international standard', 'config_control_design', 1994, #24 ) ;
#315 = ORIENTED_EDGE ( 'NONE', *, *, #383, .T. ) ;
#316 = CARTESIAN_POINT ( 'NONE',  ( 0.000000000000000000, 0.000000000000000000, 0.2000000000000000111 ) ) ;
#317 = VERTEX_POINT ( 'NONE', #346 ) ;
#318 = AXIS2_PLACEMENT_3D ( 'NONE', #302, #129, #274 ) ;
#319 = DIRECTION ( 'NONE',  ( -0.000000000000000000, 1.000000000000000000, -0.000000000000000000 ) ) ;
#320 = LINE ( 'NONE', #58, #357 ) ;
#321 = VERTEX_POINT ( 'NONE', #370 ) ;
#322 = EDGE_CURVE ( 'NONE', #140, #378, #227, .T. ) ;
#323 = ORIENTED_EDGE ( 'NONE', *, *, #37, .T. ) ;
#324 = APPROVAL_ROLE ( '' ) ;
#325 = DIRECTION ( 'NONE',  ( 1.495451272393799542E-16, -1.000000000000000000, 0.000000000000000000 ) ) ;
#326 = CALENDAR_DATE ( 2023, 25, 7 ) ;
#327 = DIRECTION ( 'NONE',  ( 1.000000000000000000, 0.000000000000000000, 0.000000000000000000 ) ) ;
#328 = DATE_AND_TIME ( #326, #173 ) ;
#329 = CARTESIAN_POINT ( 'NONE',  ( 16.00000000000000000, 1.959434878635765131E-15, 0.000000000000000000 ) ) ;
#330 = CIRCLE ( 'NONE', #384, 16.00000000000000000 ) ;
#331 = APPROVAL_DATE_TIME ( #139, #231 ) ;
#332 = CYLINDRICAL_SURFACE ( 'NONE', #238, 16.00000000000000000 ) ;
#333 = CARTESIAN_POINT ( 'NONE',  ( 12.00000000000000000, -0.9999999999999995559, 0.2000000000000000111 ) ) ;
#334 = EDGE_CURVE ( 'NONE', #106, #196, #371, .T. ) ;
#335 = CARTESIAN_POINT ( 'NONE',  ( 9.099999999999999645, 1.000000000000000000, 0.2000000000000000111 ) ) ;
#336 = VECTOR ( 'NONE', #319, 1000.000000000000000 ) ;
#337 = CARTESIAN_POINT ( 'NONE',  ( 0.000000000000000000, 0.000000000000000000, 0.000000000000000000 ) ) ;
#338 = CC_DESIGN_PERSON_AND_ORGANIZATION_ASSIGNMENT ( #211, #41, ( #148 ) ) ;
#339 = DIRECTION ( 'NONE',  ( 0.000000000000000000, -1.000000000000000000, 0.000000000000000000 ) ) ;
#340 = EDGE_LOOP ( 'NONE', ( #263, #1, #252, #262 ) ) ;
#341 = DIRECTION ( 'NONE',  ( 0.000000000000000000, 0.000000000000000000, 1.000000000000000000 ) ) ;
#342 = VERTEX_POINT ( 'NONE', #131 ) ;
#343 = AXIS2_PLACEMENT_3D ( 'NONE', #208, #353, #267 ) ;
#344 = LOCAL_TIME ( 18, 52, 6.000000000000000000, #93 ) ;
#345 = DIRECTION ( 'NONE',  ( -0.000000000000000000, -0.000000000000000000, -1.000000000000000000 ) ) ;
#346 = CARTESIAN_POINT ( 'NONE',  ( -16.00000000000000000, 0.000000000000000000, 0.2000000000000000111 ) ) ;
#347 = VERTEX_POINT ( 'NONE', #104 ) ;
#348 = ADVANCED_FACE ( 'NONE', ( #220 ), #77, .T. ) ;
#349 = SHAPE_DEFINITION_REPRESENTATION ( #112, #367 ) ;
#350 = FACE_OUTER_BOUND ( 'NONE', #78, .T. ) ;
#351 = CIRCLE ( 'NONE', #268, 16.00000000000000000 ) ;
#352 = APPROVAL_PERSON_ORGANIZATION ( #3, #226, #9 ) ;
#353 = DIRECTION ( 'NONE',  ( 0.000000000000000000, 0.000000000000000000, 1.000000000000000000 ) ) ;
#354 = EDGE_CURVE ( 'NONE', #23, #321, #277, .T. ) ;
#355 = DIRECTION ( 'NONE',  ( -1.000000000000000000, 0.000000000000000000, 0.000000000000000000 ) ) ;
#356 = PLANE ( 'NONE',  #343 ) ;
#357 = VECTOR ( 'NONE', #171, 1000.000000000000000 ) ;
#358 = LINE ( 'NONE', #31, #127 ) ;
#359 = CIRCLE ( 'NONE', #65, 1.000000000000000000 ) ;
#360 = DATE_TIME_ROLE ( 'classification_date' ) ;
#361 = CYLINDRICAL_SURFACE ( 'NONE', #91, 1.000000000000000000 ) ;
#362 = PERSON_AND_ORGANIZATION_ROLE ( 'classification_officer' ) ;
#363 = CARTESIAN_POINT ( 'NONE',  ( 12.00000000000000000, 1.000000000000000444, 0.2000000000000000111 ) ) ;
#364 = CARTESIAN_POINT ( 'NONE',  ( 0.000000000000000000, 0.000000000000000000, 0.000000000000000000 ) ) ;
#365 = DIRECTION ( 'NONE',  ( 0.000000000000000000, 0.000000000000000000, 1.000000000000000000 ) ) ;
#366 = CC_DESIGN_PERSON_AND_ORGANIZATION_ASSIGNMENT ( #295, #207, ( #152 ) ) ;
#367 = ADVANCED_BREP_SHAPE_REPRESENTATION ( 'Etage A', ( #234, #279 ), #19 ) ;
#368 = DIRECTION ( 'NONE',  ( -1.000000000000000000, 0.000000000000000000, 0.000000000000000000 ) ) ;
#369 = DESIGN_CONTEXT ( 'detailed design', #8, 'design' ) ;
#370 = CARTESIAN_POINT ( 'NONE',  ( 9.099999999999999645, -1.000000000000000000, 0.000000000000000000 ) ) ;
#371 = CIRCLE ( 'NONE', #172, 1.000000000000000000 ) ;
#372 = ADVANCED_FACE ( 'NONE', ( #199 ), #132, .F. ) ;
#373 = ORIENTED_EDGE ( 'NONE', *, *, #53, .T. ) ;
#374 =( NAMED_UNIT ( * ) SI_UNIT ( $, .STERADIAN. ) SOLID_ANGLE_UNIT ( ) );
#375 = DIRECTION ( 'NONE',  ( -0.000000000000000000, -0.000000000000000000, -1.000000000000000000 ) ) ;
#376 = ORIENTED_EDGE ( 'NONE', *, *, #322, .T. ) ;
#377 = PERSON_AND_ORGANIZATION ( #186, #166 ) ;
#378 = VERTEX_POINT ( 'NONE', #157 ) ;
#379 = EDGE_CURVE ( 'NONE', #155, #265, #292, .T. ) ;
#380 = APPROVAL_DATE_TIME ( #328, #293 ) ;
#381 = ORIENTED_EDGE ( 'NONE', *, *, #143, .F. ) ;
#382 = EDGE_LOOP ( 'NONE', ( #35, #224, #135, #27 ) ) ;
#383 = EDGE_CURVE ( 'NONE', #106, #342, #190, .T. ) ;
#384 = AXIS2_PLACEMENT_3D ( 'NONE', #97, #188, #66 ) ;
#385 = ORIENTED_EDGE ( 'NONE', *, *, #156, .T. ) ;
ENDSEC;
END-ISO-10303-21;
