ISO-10303-21;
HEADER;
/* Generated by software containing ST-Developer
 * from STEP Tools, Inc. (www.steptools.com) 
 */

FILE_DESCRIPTION(
/* description */ (''),
/* implementation_level */ '2;1');

FILE_NAME(
/* name */ 'Composant28.step',
/* time_stamp */ '2023-08-01T13:19:38+02:00',
/* author */ (''),
/* organization */ (''),
/* preprocessor_version */ 'ST-DEVELOPER v20',
/* originating_system */ 'Autodesk Translation Framework v12.9.0.99',
/* authorisation */ '');

FILE_SCHEMA (('AUTOMOTIVE_DESIGN { 1 0 10303 214 3 1 1 }'));
ENDSEC;

DATA;
#10=MECHANICAL_DESIGN_GEOMETRIC_PRESENTATION_REPRESENTATION('',(#13),#305);
#11=SHAPE_REPRESENTATION_RELATIONSHIP('SRR','None',#312,#12);
#12=ADVANCED_BREP_SHAPE_REPRESENTATION('',(#14),#304);
#13=STYLED_ITEM('',(#321),#14);
#14=MANIFOLD_SOLID_BREP('Corps1',#165);
#15=FACE_BOUND('',#41,.T.);
#16=FACE_BOUND('',#44,.T.);
#17=FACE_BOUND('',#47,.T.);
#18=FACE_BOUND('',#50,.T.);
#19=FACE_BOUND('',#53,.T.);
#20=FACE_BOUND('',#56,.T.);
#21=PLANE('',#182);
#22=PLANE('',#186);
#23=PLANE('',#190);
#24=PLANE('',#194);
#25=PLANE('',#198);
#26=PLANE('',#202);
#27=FACE_OUTER_BOUND('',#39,.T.);
#28=FACE_OUTER_BOUND('',#40,.T.);
#29=FACE_OUTER_BOUND('',#42,.T.);
#30=FACE_OUTER_BOUND('',#43,.T.);
#31=FACE_OUTER_BOUND('',#45,.T.);
#32=FACE_OUTER_BOUND('',#46,.T.);
#33=FACE_OUTER_BOUND('',#48,.T.);
#34=FACE_OUTER_BOUND('',#49,.T.);
#35=FACE_OUTER_BOUND('',#51,.T.);
#36=FACE_OUTER_BOUND('',#52,.T.);
#37=FACE_OUTER_BOUND('',#54,.T.);
#38=FACE_OUTER_BOUND('',#55,.T.);
#39=EDGE_LOOP('',(#111,#112,#113,#114));
#40=EDGE_LOOP('',(#115));
#41=EDGE_LOOP('',(#116));
#42=EDGE_LOOP('',(#117,#118,#119,#120));
#43=EDGE_LOOP('',(#121));
#44=EDGE_LOOP('',(#122));
#45=EDGE_LOOP('',(#123,#124,#125,#126));
#46=EDGE_LOOP('',(#127));
#47=EDGE_LOOP('',(#128));
#48=EDGE_LOOP('',(#129,#130,#131,#132));
#49=EDGE_LOOP('',(#133));
#50=EDGE_LOOP('',(#134));
#51=EDGE_LOOP('',(#135,#136,#137,#138));
#52=EDGE_LOOP('',(#139));
#53=EDGE_LOOP('',(#140));
#54=EDGE_LOOP('',(#141,#142,#143,#144));
#55=EDGE_LOOP('',(#145));
#56=EDGE_LOOP('',(#146));
#57=LINE('',#264,#63);
#58=LINE('',#271,#64);
#59=LINE('',#278,#65);
#60=LINE('',#285,#66);
#61=LINE('',#292,#67);
#62=LINE('',#299,#68);
#63=VECTOR('',#209,25.);
#64=VECTOR('',#218,23.);
#65=VECTOR('',#227,24.25);
#66=VECTOR('',#236,23.0000000000054);
#67=VECTOR('',#245,24.25);
#68=VECTOR('',#254,23.0000000000036);
#69=CIRCLE('',#180,25.);
#70=CIRCLE('',#181,25.0000000000019);
#71=CIRCLE('',#183,23.);
#72=CIRCLE('',#185,23.);
#73=CIRCLE('',#187,24.25);
#74=CIRCLE('',#189,24.25);
#75=CIRCLE('',#191,23.);
#76=CIRCLE('',#193,23.0000000000109);
#77=CIRCLE('',#195,24.25);
#78=CIRCLE('',#197,24.25);
#79=CIRCLE('',#199,23.0000000000047);
#80=CIRCLE('',#201,23.0000000000025);
#81=VERTEX_POINT('',#261);
#82=VERTEX_POINT('',#263);
#83=VERTEX_POINT('',#267);
#84=VERTEX_POINT('',#270);
#85=VERTEX_POINT('',#274);
#86=VERTEX_POINT('',#277);
#87=VERTEX_POINT('',#281);
#88=VERTEX_POINT('',#284);
#89=VERTEX_POINT('',#288);
#90=VERTEX_POINT('',#291);
#91=VERTEX_POINT('',#295);
#92=VERTEX_POINT('',#298);
#93=EDGE_CURVE('',#81,#81,#69,.T.);
#94=EDGE_CURVE('',#81,#82,#57,.T.);
#95=EDGE_CURVE('',#82,#82,#70,.T.);
#96=EDGE_CURVE('',#83,#83,#71,.T.);
#97=EDGE_CURVE('',#83,#84,#58,.T.);
#98=EDGE_CURVE('',#84,#84,#72,.T.);
#99=EDGE_CURVE('',#85,#85,#73,.T.);
#100=EDGE_CURVE('',#85,#86,#59,.T.);
#101=EDGE_CURVE('',#86,#86,#74,.T.);
#102=EDGE_CURVE('',#87,#87,#75,.T.);
#103=EDGE_CURVE('',#87,#88,#60,.T.);
#104=EDGE_CURVE('',#88,#88,#76,.T.);
#105=EDGE_CURVE('',#89,#89,#77,.T.);
#106=EDGE_CURVE('',#89,#90,#61,.T.);
#107=EDGE_CURVE('',#90,#90,#78,.T.);
#108=EDGE_CURVE('',#91,#91,#79,.T.);
#109=EDGE_CURVE('',#91,#92,#62,.T.);
#110=EDGE_CURVE('',#92,#92,#80,.T.);
#111=ORIENTED_EDGE('',*,*,#93,.F.);
#112=ORIENTED_EDGE('',*,*,#94,.T.);
#113=ORIENTED_EDGE('',*,*,#95,.T.);
#114=ORIENTED_EDGE('',*,*,#94,.F.);
#115=ORIENTED_EDGE('',*,*,#93,.T.);
#116=ORIENTED_EDGE('',*,*,#96,.F.);
#117=ORIENTED_EDGE('',*,*,#96,.T.);
#118=ORIENTED_EDGE('',*,*,#97,.T.);
#119=ORIENTED_EDGE('',*,*,#98,.F.);
#120=ORIENTED_EDGE('',*,*,#97,.F.);
#121=ORIENTED_EDGE('',*,*,#99,.F.);
#122=ORIENTED_EDGE('',*,*,#98,.T.);
#123=ORIENTED_EDGE('',*,*,#99,.T.);
#124=ORIENTED_EDGE('',*,*,#100,.T.);
#125=ORIENTED_EDGE('',*,*,#101,.F.);
#126=ORIENTED_EDGE('',*,*,#100,.F.);
#127=ORIENTED_EDGE('',*,*,#101,.T.);
#128=ORIENTED_EDGE('',*,*,#102,.F.);
#129=ORIENTED_EDGE('',*,*,#102,.T.);
#130=ORIENTED_EDGE('',*,*,#103,.T.);
#131=ORIENTED_EDGE('',*,*,#104,.F.);
#132=ORIENTED_EDGE('',*,*,#103,.F.);
#133=ORIENTED_EDGE('',*,*,#105,.F.);
#134=ORIENTED_EDGE('',*,*,#104,.T.);
#135=ORIENTED_EDGE('',*,*,#105,.T.);
#136=ORIENTED_EDGE('',*,*,#106,.T.);
#137=ORIENTED_EDGE('',*,*,#107,.F.);
#138=ORIENTED_EDGE('',*,*,#106,.F.);
#139=ORIENTED_EDGE('',*,*,#107,.T.);
#140=ORIENTED_EDGE('',*,*,#108,.F.);
#141=ORIENTED_EDGE('',*,*,#108,.T.);
#142=ORIENTED_EDGE('',*,*,#109,.T.);
#143=ORIENTED_EDGE('',*,*,#110,.F.);
#144=ORIENTED_EDGE('',*,*,#109,.F.);
#145=ORIENTED_EDGE('',*,*,#95,.F.);
#146=ORIENTED_EDGE('',*,*,#110,.T.);
#147=CYLINDRICAL_SURFACE('',#179,25.);
#148=CYLINDRICAL_SURFACE('',#184,23.);
#149=CYLINDRICAL_SURFACE('',#188,24.25);
#150=CYLINDRICAL_SURFACE('',#192,23.0000000000054);
#151=CYLINDRICAL_SURFACE('',#196,24.25);
#152=CYLINDRICAL_SURFACE('',#200,23.0000000000036);
#153=ADVANCED_FACE('',(#27),#147,.T.);
#154=ADVANCED_FACE('',(#28,#15),#21,.T.);
#155=ADVANCED_FACE('',(#29),#148,.F.);
#156=ADVANCED_FACE('',(#30,#16),#22,.T.);
#157=ADVANCED_FACE('',(#31),#149,.F.);
#158=ADVANCED_FACE('',(#32,#17),#23,.T.);
#159=ADVANCED_FACE('',(#33),#150,.F.);
#160=ADVANCED_FACE('',(#34,#18),#24,.T.);
#161=ADVANCED_FACE('',(#35),#151,.F.);
#162=ADVANCED_FACE('',(#36,#19),#25,.T.);
#163=ADVANCED_FACE('',(#37),#152,.F.);
#164=ADVANCED_FACE('',(#38,#20),#26,.T.);
#165=CLOSED_SHELL('',(#153,#154,#155,#156,#157,#158,#159,#160,#161,#162,
#163,#164));
#166=DERIVED_UNIT_ELEMENT(#168,1.);
#167=DERIVED_UNIT_ELEMENT(#307,-3.);
#168=(
MASS_UNIT()
NAMED_UNIT(*)
SI_UNIT(.KILO.,.GRAM.)
);
#169=DERIVED_UNIT((#166,#167));
#170=MEASURE_REPRESENTATION_ITEM('density measure',
POSITIVE_RATIO_MEASURE(8000.),#169);
#171=PROPERTY_DEFINITION_REPRESENTATION(#176,#173);
#172=PROPERTY_DEFINITION_REPRESENTATION(#177,#174);
#173=REPRESENTATION('material name',(#175),#304);
#174=REPRESENTATION('density',(#170),#304);
#175=DESCRIPTIVE_REPRESENTATION_ITEM('Acier inoxydable',
'Acier inoxydable');
#176=PROPERTY_DEFINITION('material property','material name',#314);
#177=PROPERTY_DEFINITION('material property','density of part',#314);
#178=AXIS2_PLACEMENT_3D('',#259,#203,#204);
#179=AXIS2_PLACEMENT_3D('',#260,#205,#206);
#180=AXIS2_PLACEMENT_3D('',#262,#207,#208);
#181=AXIS2_PLACEMENT_3D('',#265,#210,#211);
#182=AXIS2_PLACEMENT_3D('',#266,#212,#213);
#183=AXIS2_PLACEMENT_3D('',#268,#214,#215);
#184=AXIS2_PLACEMENT_3D('',#269,#216,#217);
#185=AXIS2_PLACEMENT_3D('',#272,#219,#220);
#186=AXIS2_PLACEMENT_3D('',#273,#221,#222);
#187=AXIS2_PLACEMENT_3D('',#275,#223,#224);
#188=AXIS2_PLACEMENT_3D('',#276,#225,#226);
#189=AXIS2_PLACEMENT_3D('',#279,#228,#229);
#190=AXIS2_PLACEMENT_3D('',#280,#230,#231);
#191=AXIS2_PLACEMENT_3D('',#282,#232,#233);
#192=AXIS2_PLACEMENT_3D('',#283,#234,#235);
#193=AXIS2_PLACEMENT_3D('',#286,#237,#238);
#194=AXIS2_PLACEMENT_3D('',#287,#239,#240);
#195=AXIS2_PLACEMENT_3D('',#289,#241,#242);
#196=AXIS2_PLACEMENT_3D('',#290,#243,#244);
#197=AXIS2_PLACEMENT_3D('',#293,#246,#247);
#198=AXIS2_PLACEMENT_3D('',#294,#248,#249);
#199=AXIS2_PLACEMENT_3D('',#296,#250,#251);
#200=AXIS2_PLACEMENT_3D('',#297,#252,#253);
#201=AXIS2_PLACEMENT_3D('',#300,#255,#256);
#202=AXIS2_PLACEMENT_3D('',#301,#257,#258);
#203=DIRECTION('axis',(0.,0.,1.));
#204=DIRECTION('refdir',(1.,0.,0.));
#205=DIRECTION('center_axis',(-1.,0.,0.));
#206=DIRECTION('ref_axis',(0.,0.,1.));
#207=DIRECTION('center_axis',(-1.,0.,0.));
#208=DIRECTION('ref_axis',(0.,0.,1.));
#209=DIRECTION('',(1.,0.,0.));
#210=DIRECTION('center_axis',(-1.,0.,0.));
#211=DIRECTION('ref_axis',(0.,0.,1.));
#212=DIRECTION('center_axis',(-1.,0.,0.));
#213=DIRECTION('ref_axis',(0.,0.,1.));
#214=DIRECTION('center_axis',(-1.,0.,0.));
#215=DIRECTION('ref_axis',(0.,0.,1.));
#216=DIRECTION('center_axis',(-1.,0.,0.));
#217=DIRECTION('ref_axis',(0.,0.,1.));
#218=DIRECTION('',(1.,0.,0.));
#219=DIRECTION('center_axis',(-1.,0.,0.));
#220=DIRECTION('ref_axis',(0.,0.,1.));
#221=DIRECTION('center_axis',(1.,0.,0.));
#222=DIRECTION('ref_axis',(0.,0.,-1.));
#223=DIRECTION('center_axis',(-1.,0.,0.));
#224=DIRECTION('ref_axis',(0.,0.,1.));
#225=DIRECTION('center_axis',(-1.,0.,0.));
#226=DIRECTION('ref_axis',(0.,0.,1.));
#227=DIRECTION('',(1.,0.,0.));
#228=DIRECTION('center_axis',(-1.,0.,0.));
#229=DIRECTION('ref_axis',(0.,0.,1.));
#230=DIRECTION('center_axis',(-1.,0.,0.));
#231=DIRECTION('ref_axis',(0.,0.,1.));
#232=DIRECTION('center_axis',(-1.,0.,0.));
#233=DIRECTION('ref_axis',(0.,0.,1.));
#234=DIRECTION('center_axis',(-1.,0.,0.));
#235=DIRECTION('ref_axis',(0.,0.,1.));
#236=DIRECTION('',(1.,0.,0.));
#237=DIRECTION('center_axis',(-1.,0.,0.));
#238=DIRECTION('ref_axis',(0.,0.,1.));
#239=DIRECTION('center_axis',(1.,0.,0.));
#240=DIRECTION('ref_axis',(0.,0.,-1.));
#241=DIRECTION('center_axis',(-1.,0.,0.));
#242=DIRECTION('ref_axis',(0.,0.,1.));
#243=DIRECTION('center_axis',(-1.,0.,0.));
#244=DIRECTION('ref_axis',(0.,0.,1.));
#245=DIRECTION('',(1.,0.,0.));
#246=DIRECTION('center_axis',(-1.,0.,0.));
#247=DIRECTION('ref_axis',(0.,0.,1.));
#248=DIRECTION('center_axis',(-1.,0.,0.));
#249=DIRECTION('ref_axis',(0.,0.,1.));
#250=DIRECTION('center_axis',(-1.,0.,0.));
#251=DIRECTION('ref_axis',(0.,0.,1.));
#252=DIRECTION('center_axis',(-1.,0.,0.));
#253=DIRECTION('ref_axis',(0.,0.,1.));
#254=DIRECTION('',(1.,0.,0.));
#255=DIRECTION('center_axis',(-1.,0.,0.));
#256=DIRECTION('ref_axis',(0.,0.,1.));
#257=DIRECTION('center_axis',(1.,0.,0.));
#258=DIRECTION('ref_axis',(0.,0.,-1.));
#259=CARTESIAN_POINT('',(0.,0.,0.));
#260=CARTESIAN_POINT('Origin',(-64.79,0.,0.));
#261=CARTESIAN_POINT('',(-160.,-3.06161699786838E-15,-25.));
#262=CARTESIAN_POINT('Origin',(-160.,0.,0.));
#263=CARTESIAN_POINT('',(30.4200000000001,-3.06161699786838E-15,-25.));
#264=CARTESIAN_POINT('',(-64.79,-3.06161699786838E-15,-25.));
#265=CARTESIAN_POINT('Origin',(30.4200000000001,0.,0.));
#266=CARTESIAN_POINT('Origin',(-160.,0.,23.));
#267=CARTESIAN_POINT('',(-160.,-2.81668763803891E-15,-23.));
#268=CARTESIAN_POINT('Origin',(-160.,0.,0.));
#269=CARTESIAN_POINT('Origin',(-158.095,0.,0.));
#270=CARTESIAN_POINT('',(-156.19,-2.81668763803891E-15,-23.));
#271=CARTESIAN_POINT('',(-158.095,-2.81668763803891E-15,-23.));
#272=CARTESIAN_POINT('Origin',(-156.19,0.,0.));
#273=CARTESIAN_POINT('Origin',(-156.19,0.,24.25));
#274=CARTESIAN_POINT('',(-156.19,-2.96976848793233E-15,-24.25));
#275=CARTESIAN_POINT('Origin',(-156.19,0.,0.));
#276=CARTESIAN_POINT('Origin',(-155.24,0.,0.));
#277=CARTESIAN_POINT('',(-154.29,-2.96976848793233E-15,-24.25));
#278=CARTESIAN_POINT('',(-155.24,-2.96976848793233E-15,-24.25));
#279=CARTESIAN_POINT('Origin',(-154.29,0.,0.));
#280=CARTESIAN_POINT('Origin',(-154.29,0.,23.));
#281=CARTESIAN_POINT('',(-154.29,-2.81668763803958E-15,-23.0000000000054));
#282=CARTESIAN_POINT('Origin',(-154.29,0.,0.));
#283=CARTESIAN_POINT('Origin',(-64.79,0.,0.));
#284=CARTESIAN_POINT('',(24.71,-2.81668763803958E-15,-23.0000000000054));
#285=CARTESIAN_POINT('',(-64.79,-2.81668763803958E-15,-23.0000000000054));
#286=CARTESIAN_POINT('Origin',(24.71,0.,0.));
#287=CARTESIAN_POINT('Origin',(24.71,0.,24.25));
#288=CARTESIAN_POINT('',(24.71,-2.96976848793233E-15,-24.25));
#289=CARTESIAN_POINT('Origin',(24.71,0.,0.));
#290=CARTESIAN_POINT('Origin',(25.66,0.,0.));
#291=CARTESIAN_POINT('',(26.61,-2.96976848793233E-15,-24.25));
#292=CARTESIAN_POINT('',(25.66,-2.96976848793233E-15,-24.25));
#293=CARTESIAN_POINT('Origin',(26.61,0.,0.));
#294=CARTESIAN_POINT('Origin',(26.6100000000001,0.,23.0000000000047));
#295=CARTESIAN_POINT('',(26.6100000000001,-2.81668763803935E-15,-23.0000000000036));
#296=CARTESIAN_POINT('Origin',(26.6100000000001,0.,0.));
#297=CARTESIAN_POINT('Origin',(28.5150000000001,0.,0.));
#298=CARTESIAN_POINT('',(30.4200000000001,-2.81668763803935E-15,-23.0000000000036));
#299=CARTESIAN_POINT('',(28.5150000000001,-2.81668763803935E-15,-23.0000000000036));
#300=CARTESIAN_POINT('Origin',(30.4200000000001,0.,0.));
#301=CARTESIAN_POINT('Origin',(30.4200000000001,0.,25.0000000000019));
#302=UNCERTAINTY_MEASURE_WITH_UNIT(LENGTH_MEASURE(0.01),#306,
'DISTANCE_ACCURACY_VALUE',
'Maximum model space distance between geometric entities at asserted c
onnectivities');
#303=UNCERTAINTY_MEASURE_WITH_UNIT(LENGTH_MEASURE(0.01),#306,
'DISTANCE_ACCURACY_VALUE',
'Maximum model space distance between geometric entities at asserted c
onnectivities');
#304=(
GEOMETRIC_REPRESENTATION_CONTEXT(3)
GLOBAL_UNCERTAINTY_ASSIGNED_CONTEXT((#302))
GLOBAL_UNIT_ASSIGNED_CONTEXT((#306,#308,#309))
REPRESENTATION_CONTEXT('','3D')
);
#305=(
GEOMETRIC_REPRESENTATION_CONTEXT(3)
GLOBAL_UNCERTAINTY_ASSIGNED_CONTEXT((#303))
GLOBAL_UNIT_ASSIGNED_CONTEXT((#306,#308,#309))
REPRESENTATION_CONTEXT('','3D')
);
#306=(
LENGTH_UNIT()
NAMED_UNIT(*)
SI_UNIT(.MILLI.,.METRE.)
);
#307=(
LENGTH_UNIT()
NAMED_UNIT(*)
SI_UNIT($,.METRE.)
);
#308=(
NAMED_UNIT(*)
PLANE_ANGLE_UNIT()
SI_UNIT($,.RADIAN.)
);
#309=(
NAMED_UNIT(*)
SI_UNIT($,.STERADIAN.)
SOLID_ANGLE_UNIT()
);
#310=SHAPE_DEFINITION_REPRESENTATION(#311,#312);
#311=PRODUCT_DEFINITION_SHAPE('',$,#314);
#312=SHAPE_REPRESENTATION('',(#178),#304);
#313=PRODUCT_DEFINITION_CONTEXT('part definition',#318,'design');
#314=PRODUCT_DEFINITION('FusionComponent','FusionComponent',#315,#313);
#315=PRODUCT_DEFINITION_FORMATION('',$,#320);
#316=PRODUCT_RELATED_PRODUCT_CATEGORY('FusionComponent',
'FusionComponent',(#320));
#317=APPLICATION_PROTOCOL_DEFINITION('international standard',
'automotive_design',2009,#318);
#318=APPLICATION_CONTEXT(
'Core Data for Automotive Mechanical Design Process');
#319=PRODUCT_CONTEXT('part definition',#318,'mechanical');
#320=PRODUCT('FusionComponent','FusionComponent',$,(#319));
#321=PRESENTATION_STYLE_ASSIGNMENT((#322));
#322=SURFACE_STYLE_USAGE(.BOTH.,#323);
#323=SURFACE_SIDE_STYLE('',(#324));
#324=SURFACE_STYLE_FILL_AREA(#325);
#325=FILL_AREA_STYLE('Acier inoxydable - Satin\X\E9',(#326));
#326=FILL_AREA_STYLE_COLOUR('Acier inoxydable - Satin\X\E9',#327);
#327=COLOUR_RGB('Acier inoxydable - Satin\X\E9',0.796078431372549,0.796078431372549,
0.796078431372549);
ENDSEC;
END-ISO-10303-21;
