ISO-10303-21;
HEADER;
/* Generated by software containing ST-Developer
 * from STEP Tools, Inc. (www.steptools.com) 
 */

FILE_DESCRIPTION(
/* description */ (''),
/* implementation_level */ '2;1');

FILE_NAME(
/* name */ 'Tuyre.step',
/* time_stamp */ '2023-08-01T13:20:44+02:00',
/* author */ (''),
/* organization */ (''),
/* preprocessor_version */ 'ST-DEVELOPER v20',
/* originating_system */ 'Autodesk Translation Framework v12.9.0.99',
/* authorisation */ '');

FILE_SCHEMA (('AUTOMOTIVE_DESIGN { 1 0 10303 214 3 1 1 }'));
ENDSEC;

DATA;
#10=MECHANICAL_DESIGN_GEOMETRIC_PRESENTATION_REPRESENTATION('',(#13),#400);
#11=SHAPE_REPRESENTATION_RELATIONSHIP('SRR','None',#407,#12);
#12=ADVANCED_BREP_SHAPE_REPRESENTATION('',(#14),#399);
#13=STYLED_ITEM('',(#416),#14);
#14=MANIFOLD_SOLID_BREP('Tuy\X\E8re',#218);
#15=CONICAL_SURFACE('',#243,12.6250000000008,0.785398163397449);
#16=CONICAL_SURFACE('',#247,7.75000000000074,0.261799387799141);
#17=LINE('',#348,#26);
#18=LINE('',#355,#27);
#19=LINE('',#361,#28);
#20=LINE('',#365,#29);
#21=LINE('',#369,#30);
#22=LINE('',#377,#31);
#23=LINE('',#384,#32);
#24=LINE('',#391,#33);
#25=LINE('',#396,#34);
#26=VECTOR('',#276,20.3999999999901);
#27=VECTOR('',#285,22.7499999999997);
#28=VECTOR('',#292,12.6250000000008);
#29=VECTOR('',#297,5.00000000000158);
#30=VECTOR('',#302,7.75000000000074);
#31=VECTOR('',#313,12.9999999999996);
#32=VECTOR('',#322,22.7500199999993);
#33=VECTOR('',#331,20.3999899999821);
#34=VECTOR('',#338,22.7500099999994);
#35=CYLINDRICAL_SURFACE('',#235,20.3999999999901);
#36=CYLINDRICAL_SURFACE('',#239,22.7499999999997);
#37=CYLINDRICAL_SURFACE('',#245,5.00000000000158);
#38=CYLINDRICAL_SURFACE('',#251,12.9999999999996);
#39=CYLINDRICAL_SURFACE('',#255,22.7500199999993);
#40=CYLINDRICAL_SURFACE('',#259,20.3999899999821);
#41=CYLINDRICAL_SURFACE('',#263,22.7500099999994);
#42=FACE_BOUND('',#66,.T.);
#43=FACE_BOUND('',#69,.T.);
#44=FACE_BOUND('',#72,.T.);
#45=FACE_BOUND('',#77,.T.);
#46=FACE_BOUND('',#80,.T.);
#47=FACE_BOUND('',#83,.T.);
#48=FACE_BOUND('',#86,.T.);
#49=FACE_OUTER_BOUND('',#65,.T.);
#50=FACE_OUTER_BOUND('',#67,.T.);
#51=FACE_OUTER_BOUND('',#68,.T.);
#52=FACE_OUTER_BOUND('',#70,.T.);
#53=FACE_OUTER_BOUND('',#71,.T.);
#54=FACE_OUTER_BOUND('',#73,.T.);
#55=FACE_OUTER_BOUND('',#74,.T.);
#56=FACE_OUTER_BOUND('',#75,.T.);
#57=FACE_OUTER_BOUND('',#76,.T.);
#58=FACE_OUTER_BOUND('',#78,.T.);
#59=FACE_OUTER_BOUND('',#79,.T.);
#60=FACE_OUTER_BOUND('',#81,.T.);
#61=FACE_OUTER_BOUND('',#82,.T.);
#62=FACE_OUTER_BOUND('',#84,.T.);
#63=FACE_OUTER_BOUND('',#85,.T.);
#64=FACE_OUTER_BOUND('',#87,.T.);
#65=EDGE_LOOP('',(#145));
#66=EDGE_LOOP('',(#146));
#67=EDGE_LOOP('',(#147,#148,#149,#150));
#68=EDGE_LOOP('',(#151));
#69=EDGE_LOOP('',(#152));
#70=EDGE_LOOP('',(#153,#154,#155,#156));
#71=EDGE_LOOP('',(#157));
#72=EDGE_LOOP('',(#158));
#73=EDGE_LOOP('',(#159,#160,#161,#162));
#74=EDGE_LOOP('',(#163,#164,#165,#166));
#75=EDGE_LOOP('',(#167,#168,#169,#170));
#76=EDGE_LOOP('',(#171));
#77=EDGE_LOOP('',(#172));
#78=EDGE_LOOP('',(#173,#174,#175,#176));
#79=EDGE_LOOP('',(#177));
#80=EDGE_LOOP('',(#178));
#81=EDGE_LOOP('',(#179,#180,#181,#182));
#82=EDGE_LOOP('',(#183));
#83=EDGE_LOOP('',(#184));
#84=EDGE_LOOP('',(#185,#186,#187,#188));
#85=EDGE_LOOP('',(#189));
#86=EDGE_LOOP('',(#190));
#87=EDGE_LOOP('',(#191,#192,#193,#194));
#88=CIRCLE('',#233,22.7500099999995);
#89=CIRCLE('',#234,20.3999999999807);
#90=CIRCLE('',#236,20.3999999999995);
#91=CIRCLE('',#238,22.7499999999995);
#92=CIRCLE('',#240,22.75);
#93=CIRCLE('',#242,20.25);
#94=CIRCLE('',#244,5.00000000000157);
#95=CIRCLE('',#246,5.00000000000158);
#96=CIRCLE('',#248,10.4999999999999);
#97=CIRCLE('',#250,13.);
#98=CIRCLE('',#252,12.9999999999991);
#99=CIRCLE('',#254,22.7500199999992);
#100=CIRCLE('',#256,22.7500199999993);
#101=CIRCLE('',#258,20.3999899999835);
#102=CIRCLE('',#260,20.3999899999807);
#103=CIRCLE('',#262,22.7500099999993);
#104=VERTEX_POINT('',#341);
#105=VERTEX_POINT('',#343);
#106=VERTEX_POINT('',#346);
#107=VERTEX_POINT('',#350);
#108=VERTEX_POINT('',#353);
#109=VERTEX_POINT('',#357);
#110=VERTEX_POINT('',#360);
#111=VERTEX_POINT('',#364);
#112=VERTEX_POINT('',#368);
#113=VERTEX_POINT('',#372);
#114=VERTEX_POINT('',#375);
#115=VERTEX_POINT('',#379);
#116=VERTEX_POINT('',#382);
#117=VERTEX_POINT('',#386);
#118=VERTEX_POINT('',#389);
#119=VERTEX_POINT('',#393);
#120=EDGE_CURVE('',#104,#104,#88,.T.);
#121=EDGE_CURVE('',#105,#105,#89,.T.);
#122=EDGE_CURVE('',#106,#106,#90,.T.);
#123=EDGE_CURVE('',#106,#105,#17,.T.);
#124=EDGE_CURVE('',#107,#107,#91,.T.);
#125=EDGE_CURVE('',#108,#108,#92,.T.);
#126=EDGE_CURVE('',#108,#107,#18,.T.);
#127=EDGE_CURVE('',#109,#109,#93,.T.);
#128=EDGE_CURVE('',#109,#110,#19,.T.);
#129=EDGE_CURVE('',#110,#110,#94,.T.);
#130=EDGE_CURVE('',#110,#111,#20,.T.);
#131=EDGE_CURVE('',#111,#111,#95,.T.);
#132=EDGE_CURVE('',#111,#112,#21,.T.);
#133=EDGE_CURVE('',#112,#112,#96,.T.);
#134=EDGE_CURVE('',#113,#113,#97,.T.);
#135=EDGE_CURVE('',#114,#114,#98,.T.);
#136=EDGE_CURVE('',#114,#113,#22,.T.);
#137=EDGE_CURVE('',#115,#115,#99,.T.);
#138=EDGE_CURVE('',#116,#116,#100,.T.);
#139=EDGE_CURVE('',#116,#115,#23,.T.);
#140=EDGE_CURVE('',#117,#117,#101,.T.);
#141=EDGE_CURVE('',#118,#118,#102,.T.);
#142=EDGE_CURVE('',#118,#117,#24,.T.);
#143=EDGE_CURVE('',#119,#119,#103,.T.);
#144=EDGE_CURVE('',#104,#119,#25,.T.);
#145=ORIENTED_EDGE('',*,*,#120,.T.);
#146=ORIENTED_EDGE('',*,*,#121,.F.);
#147=ORIENTED_EDGE('',*,*,#122,.F.);
#148=ORIENTED_EDGE('',*,*,#123,.T.);
#149=ORIENTED_EDGE('',*,*,#121,.T.);
#150=ORIENTED_EDGE('',*,*,#123,.F.);
#151=ORIENTED_EDGE('',*,*,#124,.F.);
#152=ORIENTED_EDGE('',*,*,#122,.T.);
#153=ORIENTED_EDGE('',*,*,#125,.F.);
#154=ORIENTED_EDGE('',*,*,#126,.T.);
#155=ORIENTED_EDGE('',*,*,#124,.T.);
#156=ORIENTED_EDGE('',*,*,#126,.F.);
#157=ORIENTED_EDGE('',*,*,#125,.T.);
#158=ORIENTED_EDGE('',*,*,#127,.F.);
#159=ORIENTED_EDGE('',*,*,#127,.T.);
#160=ORIENTED_EDGE('',*,*,#128,.T.);
#161=ORIENTED_EDGE('',*,*,#129,.F.);
#162=ORIENTED_EDGE('',*,*,#128,.F.);
#163=ORIENTED_EDGE('',*,*,#129,.T.);
#164=ORIENTED_EDGE('',*,*,#130,.T.);
#165=ORIENTED_EDGE('',*,*,#131,.F.);
#166=ORIENTED_EDGE('',*,*,#130,.F.);
#167=ORIENTED_EDGE('',*,*,#131,.T.);
#168=ORIENTED_EDGE('',*,*,#132,.T.);
#169=ORIENTED_EDGE('',*,*,#133,.F.);
#170=ORIENTED_EDGE('',*,*,#132,.F.);
#171=ORIENTED_EDGE('',*,*,#134,.F.);
#172=ORIENTED_EDGE('',*,*,#133,.T.);
#173=ORIENTED_EDGE('',*,*,#135,.F.);
#174=ORIENTED_EDGE('',*,*,#136,.T.);
#175=ORIENTED_EDGE('',*,*,#134,.T.);
#176=ORIENTED_EDGE('',*,*,#136,.F.);
#177=ORIENTED_EDGE('',*,*,#137,.F.);
#178=ORIENTED_EDGE('',*,*,#135,.T.);
#179=ORIENTED_EDGE('',*,*,#138,.F.);
#180=ORIENTED_EDGE('',*,*,#139,.T.);
#181=ORIENTED_EDGE('',*,*,#137,.T.);
#182=ORIENTED_EDGE('',*,*,#139,.F.);
#183=ORIENTED_EDGE('',*,*,#138,.T.);
#184=ORIENTED_EDGE('',*,*,#140,.F.);
#185=ORIENTED_EDGE('',*,*,#141,.F.);
#186=ORIENTED_EDGE('',*,*,#142,.T.);
#187=ORIENTED_EDGE('',*,*,#140,.T.);
#188=ORIENTED_EDGE('',*,*,#142,.F.);
#189=ORIENTED_EDGE('',*,*,#143,.F.);
#190=ORIENTED_EDGE('',*,*,#141,.T.);
#191=ORIENTED_EDGE('',*,*,#120,.F.);
#192=ORIENTED_EDGE('',*,*,#144,.T.);
#193=ORIENTED_EDGE('',*,*,#143,.T.);
#194=ORIENTED_EDGE('',*,*,#144,.F.);
#195=PLANE('',#232);
#196=PLANE('',#237);
#197=PLANE('',#241);
#198=PLANE('',#249);
#199=PLANE('',#253);
#200=PLANE('',#257);
#201=PLANE('',#261);
#202=ADVANCED_FACE('',(#49,#42),#195,.T.);
#203=ADVANCED_FACE('',(#50),#35,.T.);
#204=ADVANCED_FACE('',(#51,#43),#196,.T.);
#205=ADVANCED_FACE('',(#52),#36,.T.);
#206=ADVANCED_FACE('',(#53,#44),#197,.T.);
#207=ADVANCED_FACE('',(#54),#15,.F.);
#208=ADVANCED_FACE('',(#55),#37,.F.);
#209=ADVANCED_FACE('',(#56),#16,.F.);
#210=ADVANCED_FACE('',(#57,#45),#198,.T.);
#211=ADVANCED_FACE('',(#58),#38,.T.);
#212=ADVANCED_FACE('',(#59,#46),#199,.T.);
#213=ADVANCED_FACE('',(#60),#39,.T.);
#214=ADVANCED_FACE('',(#61,#47),#200,.T.);
#215=ADVANCED_FACE('',(#62),#40,.T.);
#216=ADVANCED_FACE('',(#63,#48),#201,.T.);
#217=ADVANCED_FACE('',(#64),#41,.T.);
#218=CLOSED_SHELL('',(#202,#203,#204,#205,#206,#207,#208,#209,#210,#211,
#212,#213,#214,#215,#216,#217));
#219=DERIVED_UNIT_ELEMENT(#221,1.);
#220=DERIVED_UNIT_ELEMENT(#402,-3.);
#221=(
MASS_UNIT()
NAMED_UNIT(*)
SI_UNIT(.KILO.,.GRAM.)
);
#222=DERIVED_UNIT((#219,#220));
#223=MEASURE_REPRESENTATION_ITEM('density measure',
POSITIVE_RATIO_MEASURE(8000.),#222);
#224=PROPERTY_DEFINITION_REPRESENTATION(#229,#226);
#225=PROPERTY_DEFINITION_REPRESENTATION(#230,#227);
#226=REPRESENTATION('material name',(#228),#399);
#227=REPRESENTATION('density',(#223),#399);
#228=DESCRIPTIVE_REPRESENTATION_ITEM('Acier inoxydable',
'Acier inoxydable');
#229=PROPERTY_DEFINITION('material property','material name',#409);
#230=PROPERTY_DEFINITION('material property','density of part',#409);
#231=AXIS2_PLACEMENT_3D('',#339,#264,#265);
#232=AXIS2_PLACEMENT_3D('',#340,#266,#267);
#233=AXIS2_PLACEMENT_3D('',#342,#268,#269);
#234=AXIS2_PLACEMENT_3D('',#344,#270,#271);
#235=AXIS2_PLACEMENT_3D('',#345,#272,#273);
#236=AXIS2_PLACEMENT_3D('',#347,#274,#275);
#237=AXIS2_PLACEMENT_3D('',#349,#277,#278);
#238=AXIS2_PLACEMENT_3D('',#351,#279,#280);
#239=AXIS2_PLACEMENT_3D('',#352,#281,#282);
#240=AXIS2_PLACEMENT_3D('',#354,#283,#284);
#241=AXIS2_PLACEMENT_3D('',#356,#286,#287);
#242=AXIS2_PLACEMENT_3D('',#358,#288,#289);
#243=AXIS2_PLACEMENT_3D('',#359,#290,#291);
#244=AXIS2_PLACEMENT_3D('',#362,#293,#294);
#245=AXIS2_PLACEMENT_3D('',#363,#295,#296);
#246=AXIS2_PLACEMENT_3D('',#366,#298,#299);
#247=AXIS2_PLACEMENT_3D('',#367,#300,#301);
#248=AXIS2_PLACEMENT_3D('',#370,#303,#304);
#249=AXIS2_PLACEMENT_3D('',#371,#305,#306);
#250=AXIS2_PLACEMENT_3D('',#373,#307,#308);
#251=AXIS2_PLACEMENT_3D('',#374,#309,#310);
#252=AXIS2_PLACEMENT_3D('',#376,#311,#312);
#253=AXIS2_PLACEMENT_3D('',#378,#314,#315);
#254=AXIS2_PLACEMENT_3D('',#380,#316,#317);
#255=AXIS2_PLACEMENT_3D('',#381,#318,#319);
#256=AXIS2_PLACEMENT_3D('',#383,#320,#321);
#257=AXIS2_PLACEMENT_3D('',#385,#323,#324);
#258=AXIS2_PLACEMENT_3D('',#387,#325,#326);
#259=AXIS2_PLACEMENT_3D('',#388,#327,#328);
#260=AXIS2_PLACEMENT_3D('',#390,#329,#330);
#261=AXIS2_PLACEMENT_3D('',#392,#332,#333);
#262=AXIS2_PLACEMENT_3D('',#394,#334,#335);
#263=AXIS2_PLACEMENT_3D('',#395,#336,#337);
#264=DIRECTION('axis',(0.,0.,1.));
#265=DIRECTION('refdir',(1.,0.,0.));
#266=DIRECTION('center_axis',(1.,0.,0.));
#267=DIRECTION('ref_axis',(0.,0.,-1.));
#268=DIRECTION('center_axis',(1.,0.,0.));
#269=DIRECTION('ref_axis',(0.,0.,-1.));
#270=DIRECTION('center_axis',(1.,0.,0.));
#271=DIRECTION('ref_axis',(0.,0.,-1.));
#272=DIRECTION('center_axis',(1.,0.,0.));
#273=DIRECTION('ref_axis',(0.,0.,-1.));
#274=DIRECTION('center_axis',(1.,0.,0.));
#275=DIRECTION('ref_axis',(0.,0.,-1.));
#276=DIRECTION('',(-1.,0.,0.));
#277=DIRECTION('center_axis',(-1.,0.,0.));
#278=DIRECTION('ref_axis',(0.,0.,1.));
#279=DIRECTION('center_axis',(1.,0.,0.));
#280=DIRECTION('ref_axis',(0.,0.,-1.));
#281=DIRECTION('center_axis',(1.,0.,0.));
#282=DIRECTION('ref_axis',(0.,0.,-1.));
#283=DIRECTION('center_axis',(1.,0.,0.));
#284=DIRECTION('ref_axis',(0.,0.,-1.));
#285=DIRECTION('',(-1.,0.,0.));
#286=DIRECTION('center_axis',(1.,0.,0.));
#287=DIRECTION('ref_axis',(0.,0.,-1.));
#288=DIRECTION('center_axis',(1.,0.,0.));
#289=DIRECTION('ref_axis',(0.,0.,-1.));
#290=DIRECTION('center_axis',(1.,0.,0.));
#291=DIRECTION('ref_axis',(0.,0.,-1.));
#292=DIRECTION('',(-0.707106781186547,8.65956056235494E-17,-0.707106781186548));
#293=DIRECTION('center_axis',(1.,0.,0.));
#294=DIRECTION('ref_axis',(0.,0.,-1.));
#295=DIRECTION('center_axis',(1.,0.,0.));
#296=DIRECTION('ref_axis',(0.,0.,-1.));
#297=DIRECTION('',(-1.,0.,0.));
#298=DIRECTION('center_axis',(1.,0.,0.));
#299=DIRECTION('ref_axis',(0.,0.,-1.));
#300=DIRECTION('center_axis',(-1.,0.,0.));
#301=DIRECTION('ref_axis',(0.,0.,-1.));
#302=DIRECTION('',(-0.965925826289071,-3.16961915143166E-17,0.258819045102512));
#303=DIRECTION('center_axis',(1.,0.,0.));
#304=DIRECTION('ref_axis',(0.,0.,-1.));
#305=DIRECTION('center_axis',(-1.,0.,0.));
#306=DIRECTION('ref_axis',(0.,0.,1.));
#307=DIRECTION('center_axis',(1.,0.,0.));
#308=DIRECTION('ref_axis',(0.,0.,-1.));
#309=DIRECTION('center_axis',(1.,0.,0.));
#310=DIRECTION('ref_axis',(0.,0.,-1.));
#311=DIRECTION('center_axis',(1.,0.,0.));
#312=DIRECTION('ref_axis',(0.,0.,-1.));
#313=DIRECTION('',(-1.,0.,0.));
#314=DIRECTION('center_axis',(-1.,0.,0.));
#315=DIRECTION('ref_axis',(0.,0.,1.));
#316=DIRECTION('center_axis',(1.,0.,0.));
#317=DIRECTION('ref_axis',(0.,0.,-1.));
#318=DIRECTION('center_axis',(1.,0.,0.));
#319=DIRECTION('ref_axis',(0.,0.,-1.));
#320=DIRECTION('center_axis',(1.,0.,0.));
#321=DIRECTION('ref_axis',(0.,0.,-1.));
#322=DIRECTION('',(-1.,0.,0.));
#323=DIRECTION('center_axis',(1.,0.,0.));
#324=DIRECTION('ref_axis',(0.,0.,-1.));
#325=DIRECTION('center_axis',(1.,0.,0.));
#326=DIRECTION('ref_axis',(0.,0.,-1.));
#327=DIRECTION('center_axis',(1.,0.,0.));
#328=DIRECTION('ref_axis',(0.,0.,-1.));
#329=DIRECTION('center_axis',(1.,0.,0.));
#330=DIRECTION('ref_axis',(0.,0.,-1.));
#331=DIRECTION('',(-1.,0.,0.));
#332=DIRECTION('center_axis',(-1.,0.,0.));
#333=DIRECTION('ref_axis',(0.,0.,1.));
#334=DIRECTION('center_axis',(1.,0.,0.));
#335=DIRECTION('ref_axis',(0.,0.,-1.));
#336=DIRECTION('center_axis',(1.,0.,0.));
#337=DIRECTION('ref_axis',(0.,0.,-1.));
#338=DIRECTION('',(-1.,0.,0.));
#339=CARTESIAN_POINT('',(0.,0.,0.));
#340=CARTESIAN_POINT('Origin',(9.1699999999816,0.,-20.3999999999807));
#341=CARTESIAN_POINT('',(9.16999999998673,-2.78607269270695E-15,22.7500099999994));
#342=CARTESIAN_POINT('Origin',(9.16999999998673,0.,0.));
#343=CARTESIAN_POINT('',(9.1699999999816,-2.49827947025939E-15,20.3999999999901));
#344=CARTESIAN_POINT('Origin',(9.1699999999816,0.,0.));
#345=CARTESIAN_POINT('Origin',(10.7549999999819,0.,0.));
#346=CARTESIAN_POINT('',(12.3399999999822,-2.49827947025939E-15,20.3999999999901));
#347=CARTESIAN_POINT('Origin',(12.3399999999822,0.,0.));
#348=CARTESIAN_POINT('',(10.7549999999819,-2.49827947025939E-15,20.3999999999901));
#349=CARTESIAN_POINT('Origin',(12.3399999999801,0.,-22.7499999999995));
#350=CARTESIAN_POINT('',(12.3399999999801,-2.7860714680602E-15,22.7499999999997));
#351=CARTESIAN_POINT('Origin',(12.3399999999801,0.,0.));
#352=CARTESIAN_POINT('Origin',(16.3399999999812,0.,0.));
#353=CARTESIAN_POINT('',(20.3399999999823,-2.7860714680602E-15,22.7499999999997));
#354=CARTESIAN_POINT('Origin',(20.3399999999823,0.,0.));
#355=CARTESIAN_POINT('',(16.3399999999812,-2.7860714680602E-15,22.7499999999997));
#356=CARTESIAN_POINT('Origin',(20.3399999999825,0.,-20.25));
#357=CARTESIAN_POINT('',(20.3399999999825,-2.47990976827339E-15,20.25));
#358=CARTESIAN_POINT('Origin',(20.3399999999825,0.,0.));
#359=CARTESIAN_POINT('Origin',(12.7149999999833,0.,0.));
#360=CARTESIAN_POINT('',(5.08999999998412,-6.12323399573869E-16,5.00000000000157));
#361=CARTESIAN_POINT('',(12.7149999999833,-1.54611658392363E-15,12.6250000000008));
#362=CARTESIAN_POINT('Origin',(5.08999999998412,0.,0.));
#363=CARTESIAN_POINT('Origin',(4.08999999998412,0.,0.));
#364=CARTESIAN_POINT('',(3.08999999998412,-6.1232339957387E-16,5.00000000000158));
#365=CARTESIAN_POINT('',(4.08999999998412,-6.1232339957387E-16,5.00000000000158));
#366=CARTESIAN_POINT('Origin',(3.08999999998412,0.,0.));
#367=CARTESIAN_POINT('Origin',(-7.17313972082754,0.,0.));
#368=CARTESIAN_POINT('',(-17.4362794416392,-1.28587913910471E-15,10.4999999999999));
#369=CARTESIAN_POINT('',(-7.17313972082754,-9.49101269339289E-16,7.75000000000074));
#370=CARTESIAN_POINT('Origin',(-17.4362794416392,0.,0.));
#371=CARTESIAN_POINT('Origin',(-17.4362794416393,0.,-13.));
#372=CARTESIAN_POINT('',(-17.4362794416393,-1.5920408388915E-15,12.9999999999996));
#373=CARTESIAN_POINT('Origin',(-17.4362794416393,0.,0.));
#374=CARTESIAN_POINT('Origin',(-8.71813972081965,0.,0.));
#375=CARTESIAN_POINT('',(-4.44089209850063E-14,-1.5920408388915E-15,12.9999999999996));
#376=CARTESIAN_POINT('Origin',(-4.44089209850063E-14,0.,0.));
#377=CARTESIAN_POINT('',(-8.71813972081965,-1.5920408388915E-15,12.9999999999996));
#378=CARTESIAN_POINT('Origin',(-7.70569419821827E-14,0.,-22.7500199999992));
#379=CARTESIAN_POINT('',(-7.66053886991358E-14,-2.78607391735374E-15,22.7500199999993));
#380=CARTESIAN_POINT('Origin',(-7.66053886991358E-14,0.,0.));
#381=CARTESIAN_POINT('Origin',(1.49999999999992,0.,0.));
#382=CARTESIAN_POINT('',(2.99999999999992,-2.78607391735374E-15,22.7500199999993));
#383=CARTESIAN_POINT('Origin',(2.99999999999992,0.,0.));
#384=CARTESIAN_POINT('',(1.49999999999992,-2.78607391735374E-15,22.7500199999993));
#385=CARTESIAN_POINT('Origin',(2.99999999999751,0.,-20.3999899999835));
#386=CARTESIAN_POINT('',(2.99999999999751,-2.49827824561161E-15,20.3999899999821));
#387=CARTESIAN_POINT('Origin',(2.99999999999751,0.,0.));
#388=CARTESIAN_POINT('Origin',(4.58499999999554,0.,0.));
#389=CARTESIAN_POINT('',(6.16999999999357,-2.49827824561161E-15,20.3999899999821));
#390=CARTESIAN_POINT('Origin',(6.16999999999357,0.,0.));
#391=CARTESIAN_POINT('',(4.58499999999554,-2.49827824561161E-15,20.3999899999821));
#392=CARTESIAN_POINT('Origin',(6.16999999998731,0.,-22.7500099999993));
#393=CARTESIAN_POINT('',(6.16999999998731,-2.78607269270695E-15,22.7500099999994));
#394=CARTESIAN_POINT('Origin',(6.16999999998731,0.,0.));
#395=CARTESIAN_POINT('Origin',(7.66999999998702,0.,0.));
#396=CARTESIAN_POINT('',(7.66999999998702,-2.78607269270695E-15,22.7500099999994));
#397=UNCERTAINTY_MEASURE_WITH_UNIT(LENGTH_MEASURE(0.01),#401,
'DISTANCE_ACCURACY_VALUE',
'Maximum model space distance between geometric entities at asserted c
onnectivities');
#398=UNCERTAINTY_MEASURE_WITH_UNIT(LENGTH_MEASURE(0.01),#401,
'DISTANCE_ACCURACY_VALUE',
'Maximum model space distance between geometric entities at asserted c
onnectivities');
#399=(
GEOMETRIC_REPRESENTATION_CONTEXT(3)
GLOBAL_UNCERTAINTY_ASSIGNED_CONTEXT((#397))
GLOBAL_UNIT_ASSIGNED_CONTEXT((#401,#403,#404))
REPRESENTATION_CONTEXT('','3D')
);
#400=(
GEOMETRIC_REPRESENTATION_CONTEXT(3)
GLOBAL_UNCERTAINTY_ASSIGNED_CONTEXT((#398))
GLOBAL_UNIT_ASSIGNED_CONTEXT((#401,#403,#404))
REPRESENTATION_CONTEXT('','3D')
);
#401=(
LENGTH_UNIT()
NAMED_UNIT(*)
SI_UNIT(.MILLI.,.METRE.)
);
#402=(
LENGTH_UNIT()
NAMED_UNIT(*)
SI_UNIT($,.METRE.)
);
#403=(
NAMED_UNIT(*)
PLANE_ANGLE_UNIT()
SI_UNIT($,.RADIAN.)
);
#404=(
NAMED_UNIT(*)
SI_UNIT($,.STERADIAN.)
SOLID_ANGLE_UNIT()
);
#405=SHAPE_DEFINITION_REPRESENTATION(#406,#407);
#406=PRODUCT_DEFINITION_SHAPE('',$,#409);
#407=SHAPE_REPRESENTATION('',(#231),#399);
#408=PRODUCT_DEFINITION_CONTEXT('part definition',#413,'design');
#409=PRODUCT_DEFINITION('Tuy\X\E8re','Tuy\X\E8re',#410,#408);
#410=PRODUCT_DEFINITION_FORMATION('',$,#415);
#411=PRODUCT_RELATED_PRODUCT_CATEGORY('Tuy\X\E8re','Tuy\X\E8re',(#415));
#412=APPLICATION_PROTOCOL_DEFINITION('international standard',
'automotive_design',2009,#413);
#413=APPLICATION_CONTEXT(
'Core Data for Automotive Mechanical Design Process');
#414=PRODUCT_CONTEXT('part definition',#413,'mechanical');
#415=PRODUCT('Tuy\X\E8re','Tuy\X\E8re',$,(#414));
#416=PRESENTATION_STYLE_ASSIGNMENT((#417));
#417=SURFACE_STYLE_USAGE(.BOTH.,#418);
#418=SURFACE_SIDE_STYLE('',(#419));
#419=SURFACE_STYLE_FILL_AREA(#420);
#420=FILL_AREA_STYLE('Acier inoxydable - Satin\X\E9',(#421));
#421=FILL_AREA_STYLE_COLOUR('Acier inoxydable - Satin\X\E9',#422);
#422=COLOUR_RGB('Acier inoxydable - Satin\X\E9',0.796078431372549,0.796078431372549,
0.796078431372549);
ENDSEC;
END-ISO-10303-21;
