ISO-10303-21;
HEADER;
FILE_DESCRIPTION(('FreeCAD Model'),'2;1');
FILE_NAME('Open CASCADE Shape Model','2023-08-30T18:37:06',('Author'),(
    ''),'Open CASCADE STEP processor 7.6','FreeCAD','Unknown');
FILE_SCHEMA(('AUTOMOTIVE_DESIGN { 1 0 10303 214 1 1 1 1 }'));
ENDSEC;
DATA;
#1 = APPLICATION_PROTOCOL_DEFINITION('international standard',
  'automotive_design',2000,#2);
#2 = APPLICATION_CONTEXT(
  'core data for automotive mechanical design processes');
#3 = SHAPE_DEFINITION_REPRESENTATION(#4,#10);
#4 = PRODUCT_DEFINITION_SHAPE('','',#5);
#5 = PRODUCT_DEFINITION('design','',#6,#9);
#6 = PRODUCT_DEFINITION_FORMATION('','',#7);
#7 = PRODUCT('Corps','Corps','',(#8));
#8 = PRODUCT_CONTEXT('',#2,'mechanical');
#9 = PRODUCT_DEFINITION_CONTEXT('part definition',#2,'design');
#10 = ADVANCED_BREP_SHAPE_REPRESENTATION('',(#11,#15),#298);
#11 = AXIS2_PLACEMENT_3D('',#12,#13,#14);
#12 = CARTESIAN_POINT('',(0.,0.,0.));
#13 = DIRECTION('',(0.,0.,1.));
#14 = DIRECTION('',(1.,0.,-0.));
#15 = MANIFOLD_SOLID_BREP('',#16);
#16 = CLOSED_SHELL('',(#17,#50,#75,#105,#125,#134,#159,#184,#214,#234,
    #259,#289));
#17 = ADVANCED_FACE('',(#18),#45,.F.);
#18 = FACE_BOUND('',#19,.F.);
#19 = EDGE_LOOP('',(#20,#30,#37,#38));
#20 = ORIENTED_EDGE('',*,*,#21,.F.);
#21 = EDGE_CURVE('',#22,#24,#26,.T.);
#22 = VERTEX_POINT('',#23);
#23 = CARTESIAN_POINT('',(-11.3,-7.6354123787E-16,3.438684034353));
#24 = VERTEX_POINT('',#25);
#25 = CARTESIAN_POINT('',(-11.3,-6.736541110353E-15,30.338684034353));
#26 = LINE('',#27,#28);
#27 = CARTESIAN_POINT('',(-11.3,-7.6354123787E-16,3.438684034353));
#28 = VECTOR('',#29,1.);
#29 = DIRECTION('',(0.,-2.22044604925E-16,1.));
#30 = ORIENTED_EDGE('',*,*,#31,.T.);
#31 = EDGE_CURVE('',#22,#22,#32,.T.);
#32 = CIRCLE('',#33,11.3);
#33 = AXIS2_PLACEMENT_3D('',#34,#35,#36);
#34 = CARTESIAN_POINT('',(0.,-7.6354123787E-16,3.438684034353));
#35 = DIRECTION('',(0.,-2.22044604925E-16,1.));
#36 = DIRECTION('',(-1.,0.,0.));
#37 = ORIENTED_EDGE('',*,*,#21,.T.);
#38 = ORIENTED_EDGE('',*,*,#39,.F.);
#39 = EDGE_CURVE('',#24,#24,#40,.T.);
#40 = CIRCLE('',#41,11.3);
#41 = AXIS2_PLACEMENT_3D('',#42,#43,#44);
#42 = CARTESIAN_POINT('',(0.,-6.736541110353E-15,30.338684034353));
#43 = DIRECTION('',(0.,-2.22044604925E-16,1.));
#44 = DIRECTION('',(-1.,0.,0.));
#45 = CYLINDRICAL_SURFACE('',#46,11.3);
#46 = AXIS2_PLACEMENT_3D('',#47,#48,#49);
#47 = CARTESIAN_POINT('',(0.,-7.6354123787E-16,3.438684034353));
#48 = DIRECTION('',(0.,-2.22044604925E-16,1.));
#49 = DIRECTION('',(-1.,0.,0.));
#50 = ADVANCED_FACE('',(#51),#70,.F.);
#51 = FACE_BOUND('',#52,.F.);
#52 = EDGE_LOOP('',(#53,#61,#62,#63));
#53 = ORIENTED_EDGE('',*,*,#54,.F.);
#54 = EDGE_CURVE('',#24,#55,#57,.T.);
#55 = VERTEX_POINT('',#56);
#56 = CARTESIAN_POINT('',(-11.5,-6.780950031338E-15,30.538684034353));
#57 = LINE('',#58,#59);
#58 = CARTESIAN_POINT('',(-11.3,-6.736541110353E-15,30.338684034353));
#59 = VECTOR('',#60,1.);
#60 = DIRECTION('',(-0.707106781187,-1.570092458684E-16,0.707106781187)
  );
#61 = ORIENTED_EDGE('',*,*,#39,.T.);
#62 = ORIENTED_EDGE('',*,*,#54,.T.);
#63 = ORIENTED_EDGE('',*,*,#64,.F.);
#64 = EDGE_CURVE('',#55,#55,#65,.T.);
#65 = CIRCLE('',#66,11.5);
#66 = AXIS2_PLACEMENT_3D('',#67,#68,#69);
#67 = CARTESIAN_POINT('',(0.,-6.780950031338E-15,30.538684034353));
#68 = DIRECTION('',(0.,-2.22044604925E-16,1.));
#69 = DIRECTION('',(-1.,0.,0.));
#70 = CONICAL_SURFACE('',#71,11.3,0.785398163397);
#71 = AXIS2_PLACEMENT_3D('',#72,#73,#74);
#72 = CARTESIAN_POINT('',(0.,-6.736541110353E-15,30.338684034353));
#73 = DIRECTION('',(0.,-2.22044604925E-16,1.));
#74 = DIRECTION('',(-1.,0.,0.));
#75 = ADVANCED_FACE('',(#76),#96,.T.);
#76 = FACE_BOUND('',#77,.T.);
#77 = EDGE_LOOP('',(#78,#79,#88,#95));
#78 = ORIENTED_EDGE('',*,*,#31,.T.);
#79 = ORIENTED_EDGE('',*,*,#80,.T.);
#80 = EDGE_CURVE('',#22,#81,#83,.T.);
#81 = VERTEX_POINT('',#82);
#82 = CARTESIAN_POINT('',(-10.8,-6.525189354074E-16,2.938684034353));
#83 = CIRCLE('',#84,0.5);
#84 = AXIS2_PLACEMENT_3D('',#85,#86,#87);
#85 = CARTESIAN_POINT('',(-10.8,-7.6354123787E-16,3.438684034353));
#86 = DIRECTION('',(0.,-1.,-2.22044604925E-16));
#87 = DIRECTION('',(1.,0.,0.));
#88 = ORIENTED_EDGE('',*,*,#89,.F.);
#89 = EDGE_CURVE('',#81,#81,#90,.T.);
#90 = CIRCLE('',#91,10.8);
#91 = AXIS2_PLACEMENT_3D('',#92,#93,#94);
#92 = CARTESIAN_POINT('',(0.,-6.525189354074E-16,2.938684034353));
#93 = DIRECTION('',(0.,-2.22044604925E-16,1.));
#94 = DIRECTION('',(-1.,0.,0.));
#95 = ORIENTED_EDGE('',*,*,#80,.F.);
#96 = SURFACE_OF_REVOLUTION('',#97,#102);
#97 = CIRCLE('',#98,0.5);
#98 = AXIS2_PLACEMENT_3D('',#99,#100,#101);
#99 = CARTESIAN_POINT('',(-10.8,-7.6354123787E-16,3.438684034353));
#100 = DIRECTION('',(0.,-1.,-2.22044604925E-16));
#101 = DIRECTION('',(1.,0.,0.));
#102 = AXIS1_PLACEMENT('',#103,#104);
#103 = CARTESIAN_POINT('',(0.,0.,0.));
#104 = DIRECTION('',(0.,-2.22044604925E-16,1.));
#105 = ADVANCED_FACE('',(#106,#117),#120,.T.);
#106 = FACE_BOUND('',#107,.T.);
#107 = EDGE_LOOP('',(#108));
#108 = ORIENTED_EDGE('',*,*,#109,.T.);
#109 = EDGE_CURVE('',#110,#110,#112,.T.);
#110 = VERTEX_POINT('',#111);
#111 = CARTESIAN_POINT('',(-13.3,-6.780950031338E-15,30.538684034353));
#112 = CIRCLE('',#113,13.3);
#113 = AXIS2_PLACEMENT_3D('',#114,#115,#116);
#114 = CARTESIAN_POINT('',(0.,-6.780950031338E-15,30.538684034353));
#115 = DIRECTION('',(0.,-2.22044604925E-16,1.));
#116 = DIRECTION('',(-1.,0.,0.));
#117 = FACE_BOUND('',#118,.T.);
#118 = EDGE_LOOP('',(#119));
#119 = ORIENTED_EDGE('',*,*,#64,.F.);
#120 = PLANE('',#121);
#121 = AXIS2_PLACEMENT_3D('',#122,#123,#124);
#122 = CARTESIAN_POINT('',(0.,-6.780950031338E-15,30.538684034353));
#123 = DIRECTION('',(0.,-2.22044604925E-16,1.));
#124 = DIRECTION('',(-1.,0.,0.));
#125 = ADVANCED_FACE('',(#126),#129,.T.);
#126 = FACE_BOUND('',#127,.T.);
#127 = EDGE_LOOP('',(#128));
#128 = ORIENTED_EDGE('',*,*,#89,.T.);
#129 = PLANE('',#130);
#130 = AXIS2_PLACEMENT_3D('',#131,#132,#133);
#131 = CARTESIAN_POINT('',(0.,-6.525189354074E-16,2.938684034353));
#132 = DIRECTION('',(0.,-2.22044604925E-16,1.));
#133 = DIRECTION('',(-1.,0.,0.));
#134 = ADVANCED_FACE('',(#135),#154,.T.);
#135 = FACE_BOUND('',#136,.F.);
#136 = EDGE_LOOP('',(#137,#145,#146,#147));
#137 = ORIENTED_EDGE('',*,*,#138,.F.);
#138 = EDGE_CURVE('',#110,#139,#141,.T.);
#139 = VERTEX_POINT('',#140);
#140 = CARTESIAN_POINT('',(-13.5,-6.736541110353E-15,30.338684034353));
#141 = LINE('',#142,#143);
#142 = CARTESIAN_POINT('',(-13.5,-6.736541110353E-15,30.338684034353));
#143 = VECTOR('',#144,1.);
#144 = DIRECTION('',(-0.707106781187,1.570092458684E-16,-0.707106781187)
  );
#145 = ORIENTED_EDGE('',*,*,#109,.T.);
#146 = ORIENTED_EDGE('',*,*,#138,.T.);
#147 = ORIENTED_EDGE('',*,*,#148,.F.);
#148 = EDGE_CURVE('',#139,#139,#149,.T.);
#149 = CIRCLE('',#150,13.5);
#150 = AXIS2_PLACEMENT_3D('',#151,#152,#153);
#151 = CARTESIAN_POINT('',(0.,-6.736541110353E-15,30.338684034353));
#152 = DIRECTION('',(0.,-2.22044604925E-16,1.));
#153 = DIRECTION('',(-1.,0.,0.));
#154 = CONICAL_SURFACE('',#155,13.5,0.785398163397);
#155 = AXIS2_PLACEMENT_3D('',#156,#157,#158);
#156 = CARTESIAN_POINT('',(0.,-6.736541110353E-15,30.338684034353));
#157 = DIRECTION('',(0.,2.22044604925E-16,-1.));
#158 = DIRECTION('',(-1.,0.,0.));
#159 = ADVANCED_FACE('',(#160),#179,.T.);
#160 = FACE_BOUND('',#161,.F.);
#161 = EDGE_LOOP('',(#162,#170,#171,#172));
#162 = ORIENTED_EDGE('',*,*,#163,.F.);
#163 = EDGE_CURVE('',#139,#164,#166,.T.);
#164 = VERTEX_POINT('',#165);
#165 = CARTESIAN_POINT('',(-13.5,-2.084297255574E-16,0.938684034353));
#166 = LINE('',#167,#168);
#167 = CARTESIAN_POINT('',(-13.5,-6.780950031338E-15,30.538684034353));
#168 = VECTOR('',#169,1.);
#169 = DIRECTION('',(0.,2.22044604925E-16,-1.));
#170 = ORIENTED_EDGE('',*,*,#148,.T.);
#171 = ORIENTED_EDGE('',*,*,#163,.T.);
#172 = ORIENTED_EDGE('',*,*,#173,.F.);
#173 = EDGE_CURVE('',#164,#164,#174,.T.);
#174 = CIRCLE('',#175,13.5);
#175 = AXIS2_PLACEMENT_3D('',#176,#177,#178);
#176 = CARTESIAN_POINT('',(0.,-2.084297255574E-16,0.938684034353));
#177 = DIRECTION('',(0.,-2.22044604925E-16,1.));
#178 = DIRECTION('',(-1.,0.,0.));
#179 = CYLINDRICAL_SURFACE('',#180,13.5);
#180 = AXIS2_PLACEMENT_3D('',#181,#182,#183);
#181 = CARTESIAN_POINT('',(0.,-6.780950031338E-15,30.538684034353));
#182 = DIRECTION('',(0.,2.22044604925E-16,-1.));
#183 = DIRECTION('',(-1.,0.,0.));
#184 = ADVANCED_FACE('',(#185),#205,.F.);
#185 = FACE_BOUND('',#186,.F.);
#186 = EDGE_LOOP('',(#187,#188,#197,#204));
#187 = ORIENTED_EDGE('',*,*,#173,.T.);
#188 = ORIENTED_EDGE('',*,*,#189,.T.);
#189 = EDGE_CURVE('',#164,#190,#192,.T.);
#190 = VERTEX_POINT('',#191);
#191 = CARTESIAN_POINT('',(-12.,1.246371818302E-16,-0.561315965647));
#192 = CIRCLE('',#193,1.5);
#193 = AXIS2_PLACEMENT_3D('',#194,#195,#196);
#194 = CARTESIAN_POINT('',(-12.,-2.084297255574E-16,0.938684034353));
#195 = DIRECTION('',(0.,-1.,-2.22044604925E-16));
#196 = DIRECTION('',(1.,0.,0.));
#197 = ORIENTED_EDGE('',*,*,#198,.F.);
#198 = EDGE_CURVE('',#190,#190,#199,.T.);
#199 = CIRCLE('',#200,12.);
#200 = AXIS2_PLACEMENT_3D('',#201,#202,#203);
#201 = CARTESIAN_POINT('',(0.,1.246371818302E-16,-0.561315965647));
#202 = DIRECTION('',(0.,-2.22044604925E-16,1.));
#203 = DIRECTION('',(-1.,0.,0.));
#204 = ORIENTED_EDGE('',*,*,#189,.F.);
#205 = SURFACE_OF_REVOLUTION('',#206,#211);
#206 = CIRCLE('',#207,1.5);
#207 = AXIS2_PLACEMENT_3D('',#208,#209,#210);
#208 = CARTESIAN_POINT('',(-12.,-2.084297255574E-16,0.938684034353));
#209 = DIRECTION('',(0.,-1.,-2.22044604925E-16));
#210 = DIRECTION('',(1.,0.,0.));
#211 = AXIS1_PLACEMENT('',#212,#213);
#212 = CARTESIAN_POINT('',(0.,0.,0.));
#213 = DIRECTION('',(0.,-2.22044604925E-16,1.));
#214 = ADVANCED_FACE('',(#215,#226),#229,.F.);
#215 = FACE_BOUND('',#216,.T.);
#216 = EDGE_LOOP('',(#217));
#217 = ORIENTED_EDGE('',*,*,#218,.T.);
#218 = EDGE_CURVE('',#219,#219,#221,.T.);
#219 = VERTEX_POINT('',#220);
#220 = CARTESIAN_POINT('',(-10.,1.246371818302E-16,-0.561315965647));
#221 = CIRCLE('',#222,10.);
#222 = AXIS2_PLACEMENT_3D('',#223,#224,#225);
#223 = CARTESIAN_POINT('',(0.,1.246371818302E-16,-0.561315965647));
#224 = DIRECTION('',(0.,-2.22044604925E-16,1.));
#225 = DIRECTION('',(-1.,0.,0.));
#226 = FACE_BOUND('',#227,.T.);
#227 = EDGE_LOOP('',(#228));
#228 = ORIENTED_EDGE('',*,*,#198,.F.);
#229 = PLANE('',#230);
#230 = AXIS2_PLACEMENT_3D('',#231,#232,#233);
#231 = CARTESIAN_POINT('',(0.,1.246371818302E-16,-0.561315965647));
#232 = DIRECTION('',(0.,-2.22044604925E-16,1.));
#233 = DIRECTION('',(-1.,-0.,-0.));
#234 = ADVANCED_FACE('',(#235),#254,.F.);
#235 = FACE_BOUND('',#236,.F.);
#236 = EDGE_LOOP('',(#237,#238,#246,#253));
#237 = ORIENTED_EDGE('',*,*,#218,.T.);
#238 = ORIENTED_EDGE('',*,*,#239,.T.);
#239 = EDGE_CURVE('',#219,#240,#242,.T.);
#240 = VERTEX_POINT('',#241);
#241 = CARTESIAN_POINT('',(-8.059714999709,1.692972774729E-17,
    -7.624471557417E-02));
#242 = LINE('',#243,#244);
#243 = CARTESIAN_POINT('',(-10.,1.246371818302E-16,-0.561315965647));
#244 = VECTOR('',#245,1.);
#245 = DIRECTION('',(0.970142500145,-5.385372704144E-17,0.242535625036)
  );
#246 = ORIENTED_EDGE('',*,*,#247,.F.);
#247 = EDGE_CURVE('',#240,#240,#248,.T.);
#248 = CIRCLE('',#249,8.059714999709);
#249 = AXIS2_PLACEMENT_3D('',#250,#251,#252);
#250 = CARTESIAN_POINT('',(0.,1.692972774729E-17,-7.624471557417E-02));
#251 = DIRECTION('',(0.,-2.22044604925E-16,1.));
#252 = DIRECTION('',(-1.,0.,0.));
#253 = ORIENTED_EDGE('',*,*,#239,.F.);
#254 = CONICAL_SURFACE('',#255,10.,1.325817663668);
#255 = AXIS2_PLACEMENT_3D('',#256,#257,#258);
#256 = CARTESIAN_POINT('',(0.,1.246371818302E-16,-0.561315965647));
#257 = DIRECTION('',(0.,2.22044604925E-16,-1.));
#258 = DIRECTION('',(-1.,0.,0.));
#259 = ADVANCED_FACE('',(#260),#280,.T.);
#260 = FACE_BOUND('',#261,.T.);
#261 = EDGE_LOOP('',(#262,#271,#278,#279));
#262 = ORIENTED_EDGE('',*,*,#263,.T.);
#263 = EDGE_CURVE('',#264,#264,#266,.T.);
#264 = VERTEX_POINT('',#265);
#265 = CARTESIAN_POINT('',(-7.938447187191,1.361487936765E-17,
    -6.131596564684E-02));
#266 = CIRCLE('',#267,7.938447187191);
#267 = AXIS2_PLACEMENT_3D('',#268,#269,#270);
#268 = CARTESIAN_POINT('',(0.,1.361487936765E-17,-6.131596564684E-02));
#269 = DIRECTION('',(0.,-2.22044604925E-16,1.));
#270 = DIRECTION('',(-1.,0.,0.));
#271 = ORIENTED_EDGE('',*,*,#272,.T.);
#272 = EDGE_CURVE('',#264,#240,#273,.T.);
#273 = CIRCLE('',#274,0.5);
#274 = AXIS2_PLACEMENT_3D('',#275,#276,#277);
#275 = CARTESIAN_POINT('',(-7.938447187191,1.246371818302E-16,
    -0.561315965647));
#276 = DIRECTION('',(0.,-1.,-2.22044604925E-16));
#277 = DIRECTION('',(1.,0.,0.));
#278 = ORIENTED_EDGE('',*,*,#247,.F.);
#279 = ORIENTED_EDGE('',*,*,#272,.F.);
#280 = SURFACE_OF_REVOLUTION('',#281,#286);
#281 = CIRCLE('',#282,0.5);
#282 = AXIS2_PLACEMENT_3D('',#283,#284,#285);
#283 = CARTESIAN_POINT('',(-7.938447187191,1.246371818302E-16,
    -0.561315965647));
#284 = DIRECTION('',(0.,-1.,-2.22044604925E-16));
#285 = DIRECTION('',(1.,0.,0.));
#286 = AXIS1_PLACEMENT('',#287,#288);
#287 = CARTESIAN_POINT('',(0.,0.,0.));
#288 = DIRECTION('',(0.,-2.22044604925E-16,1.));
#289 = ADVANCED_FACE('',(#290),#293,.F.);
#290 = FACE_BOUND('',#291,.F.);
#291 = EDGE_LOOP('',(#292));
#292 = ORIENTED_EDGE('',*,*,#263,.T.);
#293 = PLANE('',#294);
#294 = AXIS2_PLACEMENT_3D('',#295,#296,#297);
#295 = CARTESIAN_POINT('',(0.,1.361487936765E-17,-6.131596564684E-02));
#296 = DIRECTION('',(0.,-2.22044604925E-16,1.));
#297 = DIRECTION('',(-1.,0.,0.));
#298 = ( GEOMETRIC_REPRESENTATION_CONTEXT(3) 
GLOBAL_UNCERTAINTY_ASSIGNED_CONTEXT((#302)) GLOBAL_UNIT_ASSIGNED_CONTEXT
((#299,#300,#301)) REPRESENTATION_CONTEXT('Context #1',
  '3D Context with UNIT and UNCERTAINTY') );
#299 = ( LENGTH_UNIT() NAMED_UNIT(*) SI_UNIT(.MILLI.,.METRE.) );
#300 = ( NAMED_UNIT(*) PLANE_ANGLE_UNIT() SI_UNIT($,.RADIAN.) );
#301 = ( NAMED_UNIT(*) SI_UNIT($,.STERADIAN.) SOLID_ANGLE_UNIT() );
#302 = UNCERTAINTY_MEASURE_WITH_UNIT(LENGTH_MEASURE(1.E-07),#299,
  'distance_accuracy_value','confusion accuracy');
#303 = PRODUCT_RELATED_PRODUCT_CATEGORY('part',$,(#7));
#304 = MECHANICAL_DESIGN_GEOMETRIC_PRESENTATION_REPRESENTATION('',(#305)
  ,#298);
#305 = STYLED_ITEM('color',(#306),#15);
#306 = PRESENTATION_STYLE_ASSIGNMENT((#307,#313));
#307 = SURFACE_STYLE_USAGE(.BOTH.,#308);
#308 = SURFACE_SIDE_STYLE('',(#309));
#309 = SURFACE_STYLE_FILL_AREA(#310);
#310 = FILL_AREA_STYLE('',(#311));
#311 = FILL_AREA_STYLE_COLOUR('',#312);
#312 = COLOUR_RGB('',0.800000010877,0.800000010877,0.800000010877);
#313 = CURVE_STYLE('',#314,POSITIVE_LENGTH_MEASURE(0.1),#312);
#314 = DRAUGHTING_PRE_DEFINED_CURVE_FONT('continuous');
ENDSEC;
END-ISO-10303-21;
