ISO-10303-21;
HEADER;

/* File generated by Shapr3D Version 3.0 */

FILE_DESCRIPTION(('HOOPS Exchange Step'),'2;1');

FILE_NAME('/private/var/mobile/Containers/Data/Application/C2AD2856-75D8-470C-B244-83EA73567044/tmp/export/temp_export',
'2023-08-11T14:10:29+02:00',
('mobile'),
('Shapr3D Limited'),
'HOOPS Exchange 2023.1',
'Shapr3D',
'Authorized');

FILE_SCHEMA( ('AUTOMOTIVE_DESIGN { 1 0 10303 214 1 1 1 1 }') );

ENDSEC;

DATA;
#3=(NAMED_UNIT(*)PLANE_ANGLE_UNIT()SI_UNIT($,.RADIAN.));
#4=PLANE_ANGLE_MEASURE_WITH_UNIT(PLANE_ANGLE_MEASURE(0.0174532925),#3);
#5=(CONVERSION_BASED_UNIT('DEGREE',#4)NAMED_UNIT(#6)PLANE_ANGLE_UNIT());
#6=DIMENSIONAL_EXPONENTS(0.,0.,0.,0.,0.,0.,0.);
#7=(NAMED_UNIT(*)SI_UNIT($,.STERADIAN.)SOLID_ANGLE_UNIT());
#8=(LENGTH_UNIT()NAMED_UNIT(*)SI_UNIT(.MILLI.,.METRE.));
#9=UNCERTAINTY_MEASURE_WITH_UNIT(LENGTH_MEASURE(1.000000E-05),#8,'DISTANCE_ACCURACY_VALUE','Maximum Tolerance applied to model');
#10=(GEOMETRIC_REPRESENTATION_CONTEXT(3)GLOBAL_UNCERTAINTY_ASSIGNED_CONTEXT((#9))GLOBAL_UNIT_ASSIGNED_CONTEXT((#8,#5,#7))REPRESENTATION_CONTEXT('','root'));
#12=CARTESIAN_POINT('',(0.,0.,0.));
#13=DIRECTION('',(0.,0.,1.));
#14=DIRECTION('',(1.,0.,0.));
#15=AXIS2_PLACEMENT_3D('TS3D_PRODUCT_CSYS',#12,#13,#14);
#27=CARTESIAN_POINT('',(19.9,0.,-2.));
#28=DIRECTION('',(-1.,0.,0.));
#29=DIRECTION('',(0.,0.,1.));
#30=AXIS2_PLACEMENT_3D('',#27,#28,#29);
#31=CYLINDRICAL_SURFACE('',#30,1.525);
#32=CARTESIAN_POINT('',(0.1,0.,-0.475));
#33=VERTEX_POINT('',#32);
#34=CARTESIAN_POINT('',(18.692761197,0.,-0.475));
#35=VERTEX_POINT('',#34);
#36=CARTESIAN_POINT('',(0.1,0.,-0.475));
#37=DIRECTION('',(1.,-0.,-0.));
#38=VECTOR('',#37,18.592761197);
#39=LINE('',#36,#38);
#40=EDGE_CURVE('',#33,#35,#39,.T.);
#41=ORIENTED_EDGE('',*,*,#40,.T.);
#42=CARTESIAN_POINT('',(18.692761197,-0.,-3.525));
#43=VERTEX_POINT('',#42);
#44=CARTESIAN_POINT('',(18.692761197,0.,-2.));
#45=DIRECTION('',(-1.,-0.,-0.));
#46=DIRECTION('',(0.,0.,-1.));
#47=AXIS2_PLACEMENT_3D('',#44,#45,#46);
#48=CIRCLE('',#47,1.525);
#49=EDGE_CURVE('',#35,#43,#48,.T.);
#50=ORIENTED_EDGE('',*,*,#49,.T.);
#51=CARTESIAN_POINT('',(18.692761197,0.,-2.));
#52=DIRECTION('',(-1.,-0.,-0.));
#53=DIRECTION('',(0.,0.,-1.));
#54=AXIS2_PLACEMENT_3D('',#51,#52,#53);
#55=CIRCLE('',#54,1.525);
#56=EDGE_CURVE('',#43,#35,#55,.T.);
#57=ORIENTED_EDGE('',*,*,#56,.T.);
#58=ORIENTED_EDGE('',*,*,#40,.F.);
#59=CARTESIAN_POINT('',(0.1,-0.,-3.525));
#60=VERTEX_POINT('',#59);
#61=CARTESIAN_POINT('',(0.1,0.,-2.));
#62=DIRECTION('',(1.,0.,0.));
#63=DIRECTION('',(0.,0.,-1.));
#64=AXIS2_PLACEMENT_3D('',#61,#62,#63);
#65=CIRCLE('',#64,1.525);
#66=EDGE_CURVE('',#33,#60,#65,.T.);
#67=ORIENTED_EDGE('',*,*,#66,.T.);
#68=CARTESIAN_POINT('',(0.1,0.,-2.));
#69=DIRECTION('',(1.,0.,0.));
#70=DIRECTION('',(0.,0.,-1.));
#71=AXIS2_PLACEMENT_3D('',#68,#69,#70);
#72=CIRCLE('',#71,1.525);
#73=EDGE_CURVE('',#60,#33,#72,.T.);
#74=ORIENTED_EDGE('',*,*,#73,.T.);
#75=EDGE_LOOP('',(#41,#50,#57,#58,#67,#74));
#76=FACE_BOUND('',#75,.T.);
#77=ADVANCED_FACE('',(#76),#31,.T.);
#78=CARTESIAN_POINT('',(21.9,0.,-2.));
#79=DIRECTION('',(-1.,0.,0.));
#80=DIRECTION('',(0.,0.,1.));
#81=AXIS2_PLACEMENT_3D('',#78,#79,#80);
#82=CYLINDRICAL_SURFACE('',#81,1.42);
#83=CARTESIAN_POINT('',(20.7,0.,-0.58));
#84=VERTEX_POINT('',#83);
#85=CARTESIAN_POINT('',(21.7,0.,-0.58));
#86=VERTEX_POINT('',#85);
#87=CARTESIAN_POINT('',(20.7,0.,-0.58));
#88=DIRECTION('',(1.,-0.,-0.));
#89=VECTOR('',#88,1.);
#90=LINE('',#87,#89);
#91=EDGE_CURVE('',#84,#86,#90,.T.);
#92=ORIENTED_EDGE('',*,*,#91,.T.);
#93=CARTESIAN_POINT('',(21.7,-0.,-3.42));
#94=VERTEX_POINT('',#93);
#95=CARTESIAN_POINT('',(21.7,0.,-2.));
#96=DIRECTION('',(-1.,-0.,-0.));
#97=DIRECTION('',(0.,0.,-1.));
#98=AXIS2_PLACEMENT_3D('',#95,#96,#97);
#99=CIRCLE('',#98,1.42);
#100=EDGE_CURVE('',#86,#94,#99,.T.);
#101=ORIENTED_EDGE('',*,*,#100,.T.);
#102=CARTESIAN_POINT('',(21.7,0.,-2.));
#103=DIRECTION('',(-1.,-0.,-0.));
#104=DIRECTION('',(0.,0.,-1.));
#105=AXIS2_PLACEMENT_3D('',#102,#103,#104);
#106=CIRCLE('',#105,1.42);
#107=EDGE_CURVE('',#94,#86,#106,.T.);
#108=ORIENTED_EDGE('',*,*,#107,.T.);
#109=ORIENTED_EDGE('',*,*,#91,.F.);
#110=CARTESIAN_POINT('',(20.7,-0.,-3.42));
#111=VERTEX_POINT('',#110);
#112=CARTESIAN_POINT('',(20.7,0.,-2.));
#113=DIRECTION('',(1.,0.,0.));
#114=DIRECTION('',(0.,0.,-1.));
#115=AXIS2_PLACEMENT_3D('',#112,#113,#114);
#116=CIRCLE('',#115,1.42);
#117=EDGE_CURVE('',#84,#111,#116,.T.);
#118=ORIENTED_EDGE('',*,*,#117,.T.);
#119=CARTESIAN_POINT('',(20.7,0.,-2.));
#120=DIRECTION('',(1.,0.,0.));
#121=DIRECTION('',(0.,0.,-1.));
#122=AXIS2_PLACEMENT_3D('',#119,#120,#121);
#123=CIRCLE('',#122,1.42);
#124=EDGE_CURVE('',#111,#84,#123,.T.);
#125=ORIENTED_EDGE('',*,*,#124,.T.);
#126=EDGE_LOOP('',(#92,#101,#108,#109,#118,#125));
#127=FACE_BOUND('',#126,.T.);
#128=ADVANCED_FACE('',(#127),#82,.T.);
#129=CARTESIAN_POINT('',(20.7,0.,-2.));
#130=DIRECTION('',(1.,0.,0.));
#131=DIRECTION('',(0.,0.,-1.));
#132=AXIS2_PLACEMENT_3D('',#129,#130,#131);
#133=CONICAL_SURFACE('',#132,1.42,45.);
#134=CARTESIAN_POINT('',(20.691446609,0.,-3.411446609));
#135=VERTEX_POINT('',#134);
#136=CARTESIAN_POINT('',(20.7,0.,-3.42));
#137=DIRECTION('',(-0.707106781,-0.,0.707106781));
#138=VECTOR('',#137,0.012096321);
#139=LINE('',#136,#138);
#140=EDGE_CURVE('',#111,#135,#139,.T.);
#141=ORIENTED_EDGE('',*,*,#140,.T.);
#142=CARTESIAN_POINT('',(20.691446609,-0.,-0.588553391));
#143=VERTEX_POINT('',#142);
#144=CARTESIAN_POINT('',(20.691446609,0.,-2.));
#145=DIRECTION('',(1.,-0.,-0.));
#146=DIRECTION('',(0.,0.,1.));
#147=AXIS2_PLACEMENT_3D('',#144,#145,#146);
#148=CIRCLE('',#147,1.411446609);
#149=EDGE_CURVE('',#135,#143,#148,.T.);
#150=ORIENTED_EDGE('',*,*,#149,.T.);
#151=CARTESIAN_POINT('',(20.691446609,0.,-2.));
#152=DIRECTION('',(1.,-0.,-0.));
#153=DIRECTION('',(0.,0.,1.));
#154=AXIS2_PLACEMENT_3D('',#151,#152,#153);
#155=CIRCLE('',#154,1.411446609);
#156=EDGE_CURVE('',#143,#135,#155,.T.);
#157=ORIENTED_EDGE('',*,*,#156,.T.);
#158=ORIENTED_EDGE('',*,*,#140,.F.);
#159=ORIENTED_EDGE('',*,*,#117,.F.);
#160=ORIENTED_EDGE('',*,*,#124,.F.);
#161=EDGE_LOOP('',(#141,#150,#157,#158,#159,#160));
#162=FACE_BOUND('',#161,.T.);
#163=ADVANCED_FACE('',(#162),#133,.T.);
#164=CARTESIAN_POINT('',(21.9,0.,-2.));
#165=DIRECTION('',(-1.,0.,0.));
#166=DIRECTION('',(0.,0.,1.));
#167=AXIS2_PLACEMENT_3D('',#164,#165,#166);
#168=CONICAL_SURFACE('',#167,1.22,45.);
#169=CARTESIAN_POINT('',(21.701421356,0.,-0.581421356));
#170=VERTEX_POINT('',#169);
#171=CARTESIAN_POINT('',(21.699857864,0.,-0.579857864));
#172=DIRECTION('',(0.707106781,-0.,-0.707106781));
#173=VECTOR('',#172,0.002412122);
#174=LINE('',#171,#173);
#175=EDGE_CURVE('',#86,#170,#174,.T.);
#176=ORIENTED_EDGE('',*,*,#175,.T.);
#177=CARTESIAN_POINT('',(21.701421356,-0.,-3.418578644));
#178=VERTEX_POINT('',#177);
#179=CARTESIAN_POINT('',(21.701421356,0.,-2.));
#180=DIRECTION('',(-1.,-0.,-0.));
#181=DIRECTION('',(0.,0.,-1.));
#182=AXIS2_PLACEMENT_3D('',#179,#180,#181);
#183=CIRCLE('',#182,1.418578644);
#184=EDGE_CURVE('',#170,#178,#183,.T.);
#185=ORIENTED_EDGE('',*,*,#184,.T.);
#186=CARTESIAN_POINT('',(21.701421356,0.,-2.));
#187=DIRECTION('',(-1.,-0.,-0.));
#188=DIRECTION('',(0.,0.,-1.));
#189=AXIS2_PLACEMENT_3D('',#186,#187,#188);
#190=CIRCLE('',#189,1.418578644);
#191=EDGE_CURVE('',#178,#170,#190,.T.);
#192=ORIENTED_EDGE('',*,*,#191,.T.);
#193=ORIENTED_EDGE('',*,*,#175,.F.);
#194=ORIENTED_EDGE('',*,*,#107,.F.);
#195=ORIENTED_EDGE('',*,*,#100,.F.);
#196=EDGE_LOOP('',(#176,#185,#192,#193,#194,#195));
#197=FACE_BOUND('',#196,.T.);
#198=ADVANCED_FACE('',(#197),#168,.T.);
#199=CARTESIAN_POINT('',(27.14,0.,-2.));
#200=DIRECTION('',(1.,0.,0.));
#201=DIRECTION('',(0.,1.,0.));
#202=AXIS2_PLACEMENT_3D('',#199,#200,#201);
#203=PLANE('',#202);
#204=CARTESIAN_POINT('',(27.14,-0.,-2.665));
#205=VERTEX_POINT('',#204);
#206=CARTESIAN_POINT('',(27.14,0.,-1.335));
#207=VERTEX_POINT('',#206);
#208=CARTESIAN_POINT('',(27.14,0.,-2.));
#209=DIRECTION('',(1.,0.,0.));
#210=DIRECTION('',(0.,0.,-1.));
#211=AXIS2_PLACEMENT_3D('',#208,#209,#210);
#212=CIRCLE('',#211,0.665);
#213=EDGE_CURVE('',#205,#207,#212,.T.);
#214=ORIENTED_EDGE('',*,*,#213,.T.);
#215=CARTESIAN_POINT('',(27.14,0.,-2.));
#216=DIRECTION('',(1.,0.,0.));
#217=DIRECTION('',(0.,0.,-1.));
#218=AXIS2_PLACEMENT_3D('',#215,#216,#217);
#219=CIRCLE('',#218,0.665);
#220=EDGE_CURVE('',#207,#205,#219,.T.);
#221=ORIENTED_EDGE('',*,*,#220,.T.);
#222=EDGE_LOOP('',(#214,#221));
#223=FACE_BOUND('',#222,.T.);
#224=ADVANCED_FACE('',(#223),#203,.T.);
#225=CARTESIAN_POINT('',(24.65,0.,-2.));
#226=DIRECTION('',(-1.,0.,0.));
#227=DIRECTION('',(0.,0.,1.));
#228=AXIS2_PLACEMENT_3D('',#225,#226,#227);
#229=CYLINDRICAL_SURFACE('',#228,0.765);
#230=CARTESIAN_POINT('',(21.96,0.,-1.235));
#231=VERTEX_POINT('',#230);
#232=CARTESIAN_POINT('',(27.04,0.,-1.235));
#233=VERTEX_POINT('',#232);
#234=CARTESIAN_POINT('',(21.96,0.,-1.235));
#235=DIRECTION('',(1.,-0.,-0.));
#236=VECTOR('',#235,5.08);
#237=LINE('',#234,#236);
#238=EDGE_CURVE('',#231,#233,#237,.T.);
#239=ORIENTED_EDGE('',*,*,#238,.T.);
#240=CARTESIAN_POINT('',(27.04,-0.,-2.765));
#241=VERTEX_POINT('',#240);
#242=CARTESIAN_POINT('',(27.04,0.,-2.));
#243=DIRECTION('',(-1.,-0.,-0.));
#244=DIRECTION('',(0.,0.,-1.));
#245=AXIS2_PLACEMENT_3D('',#242,#243,#244);
#246=CIRCLE('',#245,0.765);
#247=EDGE_CURVE('',#233,#241,#246,.T.);
#248=ORIENTED_EDGE('',*,*,#247,.T.);
#249=CARTESIAN_POINT('',(27.04,0.,-2.));
#250=DIRECTION('',(-1.,-0.,-0.));
#251=DIRECTION('',(0.,0.,-1.));
#252=AXIS2_PLACEMENT_3D('',#249,#250,#251);
#253=CIRCLE('',#252,0.765);
#254=EDGE_CURVE('',#241,#233,#253,.T.);
#255=ORIENTED_EDGE('',*,*,#254,.T.);
#256=ORIENTED_EDGE('',*,*,#238,.F.);
#257=CARTESIAN_POINT('',(21.96,-0.,-2.765));
#258=VERTEX_POINT('',#257);
#259=CARTESIAN_POINT('',(21.96,0.,-2.));
#260=DIRECTION('',(1.,0.,0.));
#261=DIRECTION('',(0.,0.,-1.));
#262=AXIS2_PLACEMENT_3D('',#259,#260,#261);
#263=CIRCLE('',#262,0.765);
#264=EDGE_CURVE('',#231,#258,#263,.T.);
#265=ORIENTED_EDGE('',*,*,#264,.T.);
#266=CARTESIAN_POINT('',(21.96,0.,-2.));
#267=DIRECTION('',(1.,0.,0.));
#268=DIRECTION('',(0.,0.,-1.));
#269=AXIS2_PLACEMENT_3D('',#266,#267,#268);
#270=CIRCLE('',#269,0.765);
#271=EDGE_CURVE('',#258,#231,#270,.T.);
#272=ORIENTED_EDGE('',*,*,#271,.T.);
#273=EDGE_LOOP('',(#239,#248,#255,#256,#265,#272));
#274=FACE_BOUND('',#273,.T.);
#275=ADVANCED_FACE('',(#274),#229,.T.);
#276=CARTESIAN_POINT('',(21.76,0.,-2.));
#277=DIRECTION('',(1.,0.,0.));
#278=DIRECTION('',(0.,1.,0.));
#279=AXIS2_PLACEMENT_3D('',#276,#277,#278);
#280=PLANE('',#279);
#281=CARTESIAN_POINT('',(21.76,-0.,-2.965));
#282=VERTEX_POINT('',#281);
#283=CARTESIAN_POINT('',(21.76,0.,-2.));
#284=DIRECTION('',(-1.,-0.,-0.));
#285=DIRECTION('',(0.,0.,-1.));
#286=AXIS2_PLACEMENT_3D('',#283,#284,#285);
#287=CIRCLE('',#286,0.965);
#288=EDGE_CURVE('',#282,#282,#287,.T.);
#289=ORIENTED_EDGE('',*,*,#288,.T.);
#290=EDGE_LOOP('',(#289));
#291=FACE_BOUND('',#290,.T.);
#292=CARTESIAN_POINT('',(21.76,-0.,-3.277157288));
#293=VERTEX_POINT('',#292);
#294=CARTESIAN_POINT('',(21.76,0.,-2.));
#295=DIRECTION('',(1.,0.,0.));
#296=DIRECTION('',(0.,0.,-1.));
#297=AXIS2_PLACEMENT_3D('',#294,#295,#296);
#298=CIRCLE('',#297,1.277157288);
#299=EDGE_CURVE('',#293,#293,#298,.T.);
#300=ORIENTED_EDGE('',*,*,#299,.T.);
#301=EDGE_LOOP('',(#300));
#302=FACE_BOUND('',#301,.T.);
#303=ADVANCED_FACE('',(#291,#302),#280,.T.);
#304=CARTESIAN_POINT('',(20.5,0.,-2.));
#305=DIRECTION('',(-1.,0.,0.));
#306=DIRECTION('',(0.,0.,1.));
#307=AXIS2_PLACEMENT_3D('',#304,#305,#306);
#308=CYLINDRICAL_SURFACE('',#307,1.265);
#309=CARTESIAN_POINT('',(19.131395441,-0.,-0.735));
#310=VERTEX_POINT('',#309);
#311=CARTESIAN_POINT('',(20.337893219,-0.,-0.735));
#312=VERTEX_POINT('',#311);
#313=CARTESIAN_POINT('',(19.131395441,0.,-0.735));
#314=DIRECTION('',(1.,-0.,-0.));
#315=VECTOR('',#314,1.206497778);
#316=LINE('',#313,#315);
#317=EDGE_CURVE('',#310,#312,#316,.T.);
#318=ORIENTED_EDGE('',*,*,#317,.T.);
#319=CARTESIAN_POINT('',(20.337893219,0.,-2.));
#320=DIRECTION('',(-1.,0.,0.));
#321=DIRECTION('',(0.,0.,1.));
#322=AXIS2_PLACEMENT_3D('',#319,#320,#321);
#323=CIRCLE('',#322,1.265);
#324=EDGE_CURVE('',#312,#312,#323,.T.);
#325=ORIENTED_EDGE('',*,*,#324,.T.);
#326=ORIENTED_EDGE('',*,*,#317,.F.);
#327=CARTESIAN_POINT('',(19.131395441,0.,-2.));
#328=DIRECTION('',(1.,-0.,-0.));
#329=DIRECTION('',(0.,0.,1.));
#330=AXIS2_PLACEMENT_3D('',#327,#328,#329);
#331=CIRCLE('',#330,1.265);
#332=EDGE_CURVE('',#310,#310,#331,.T.);
#333=ORIENTED_EDGE('',*,*,#332,.T.);
#334=EDGE_LOOP('',(#318,#325,#326,#333));
#335=FACE_BOUND('',#334,.T.);
#336=ADVANCED_FACE('',(#335),#308,.T.);
#337=CARTESIAN_POINT('',(0.,0.,-2.));
#338=DIRECTION('',(1.,0.,0.));
#339=DIRECTION('',(0.,1.,0.));
#340=AXIS2_PLACEMENT_3D('',#337,#338,#339);
#341=PLANE('',#340);
#342=CARTESIAN_POINT('',(0.,0.,-3.425));
#343=VERTEX_POINT('',#342);
#344=CARTESIAN_POINT('',(0.,0.,-2.));
#345=DIRECTION('',(-1.,-0.,-0.));
#346=DIRECTION('',(0.,0.,-1.));
#347=AXIS2_PLACEMENT_3D('',#344,#345,#346);
#348=CIRCLE('',#347,1.425);
#349=EDGE_CURVE('',#343,#343,#348,.T.);
#350=ORIENTED_EDGE('',*,*,#349,.T.);
#351=EDGE_LOOP('',(#350));
#352=FACE_BOUND('',#351,.T.);
#353=ADVANCED_FACE('',(#352),#341,.F.);
#354=CARTESIAN_POINT('',(27.14,0.,-2.));
#355=DIRECTION('',(-1.,0.,0.));
#356=DIRECTION('',(0.,0.,1.));
#357=AXIS2_PLACEMENT_3D('',#354,#355,#356);
#358=CONICAL_SURFACE('',#357,0.665,45.);
#359=CARTESIAN_POINT('',(27.04,0.,-1.235));
#360=DIRECTION('',(0.707106781,-0.,-0.707106781));
#361=VECTOR('',#360,0.141421356);
#362=LINE('',#359,#361);
#363=EDGE_CURVE('',#233,#207,#362,.T.);
#364=ORIENTED_EDGE('',*,*,#363,.T.);
#365=ORIENTED_EDGE('',*,*,#213,.F.);
#366=ORIENTED_EDGE('',*,*,#220,.F.);
#367=ORIENTED_EDGE('',*,*,#363,.F.);
#368=ORIENTED_EDGE('',*,*,#254,.F.);
#369=ORIENTED_EDGE('',*,*,#247,.F.);
#370=EDGE_LOOP('',(#364,#365,#366,#367,#368,#369));
#371=FACE_BOUND('',#370,.T.);
#372=ADVANCED_FACE('',(#371),#358,.T.);
#373=CARTESIAN_POINT('',(21.96,0.,-2.));
#374=DIRECTION('',(1.,0.,0.));
#375=DIRECTION('',(0.,0.,-1.));
#376=AXIS2_PLACEMENT_3D('',#373,#374,#375);
#377=TOROIDAL_SURFACE('',#376,0.965,0.2);
#378=CARTESIAN_POINT('',(21.96,0.,-2.965));
#379=DIRECTION('',(-0.,1.,-0.));
#380=DIRECTION('',(0.,0.,-1.));
#381=AXIS2_PLACEMENT_3D('',#378,#379,#380);
#382=CIRCLE('',#381,0.2);
#383=EDGE_CURVE('',#282,#258,#382,.T.);
#384=ORIENTED_EDGE('',*,*,#383,.F.);
#385=ORIENTED_EDGE('',*,*,#288,.F.);
#386=ORIENTED_EDGE('',*,*,#383,.T.);
#387=ORIENTED_EDGE('',*,*,#264,.F.);
#388=ORIENTED_EDGE('',*,*,#271,.F.);
#389=EDGE_LOOP('',(#384,#385,#386,#387,#388));
#390=FACE_BOUND('',#389,.T.);
#391=ADVANCED_FACE('',(#390),#377,.F.);
#392=CARTESIAN_POINT('',(21.56,0.,-2.));
#393=DIRECTION('',(1.,0.,0.));
#394=DIRECTION('',(0.,0.,-1.));
#395=AXIS2_PLACEMENT_3D('',#392,#393,#394);
#396=TOROIDAL_SURFACE('',#395,1.277157288,0.2);
#397=CARTESIAN_POINT('',(21.56,0.,-3.277157288));
#398=DIRECTION('',(-0.,1.,-0.));
#399=DIRECTION('',(0.,0.,-1.));
#400=AXIS2_PLACEMENT_3D('',#397,#398,#399);
#401=CIRCLE('',#400,0.2);
#402=EDGE_CURVE('',#293,#178,#401,.T.);
#403=ORIENTED_EDGE('',*,*,#402,.T.);
#404=ORIENTED_EDGE('',*,*,#184,.F.);
#405=ORIENTED_EDGE('',*,*,#191,.F.);
#406=ORIENTED_EDGE('',*,*,#402,.F.);
#407=ORIENTED_EDGE('',*,*,#299,.F.);
#408=EDGE_LOOP('',(#403,#404,#405,#406,#407));
#409=FACE_BOUND('',#408,.T.);
#410=ADVANCED_FACE('',(#409),#396,.T.);
#411=CARTESIAN_POINT('',(20.337893219,0.,-2.));
#412=DIRECTION('',(-1.,0.,0.));
#413=DIRECTION('',(0.,0.,1.));
#414=AXIS2_PLACEMENT_3D('',#411,#412,#413);
#415=TOROIDAL_SURFACE('',#414,1.765,0.5);
#416=CARTESIAN_POINT('',(20.337893219,0.,-0.235));
#417=DIRECTION('',(-0.,1.,-0.));
#418=DIRECTION('',(0.,0.,1.));
#419=AXIS2_PLACEMENT_3D('',#416,#417,#418);
#420=CIRCLE('',#419,0.5);
#421=EDGE_CURVE('',#143,#312,#420,.T.);
#422=ORIENTED_EDGE('',*,*,#421,.F.);
#423=ORIENTED_EDGE('',*,*,#149,.F.);
#424=ORIENTED_EDGE('',*,*,#156,.F.);
#425=ORIENTED_EDGE('',*,*,#421,.T.);
#426=ORIENTED_EDGE('',*,*,#324,.F.);
#427=EDGE_LOOP('',(#422,#423,#424,#425,#426));
#428=FACE_BOUND('',#427,.T.);
#429=ADVANCED_FACE('',(#428),#415,.F.);
#430=CARTESIAN_POINT('',(19.131395441,0.,-2.));
#431=DIRECTION('',(-1.,0.,0.));
#432=DIRECTION('',(0.,0.,1.));
#433=AXIS2_PLACEMENT_3D('',#430,#431,#432);
#434=TOROIDAL_SURFACE('',#433,1.765,0.5);
#435=CARTESIAN_POINT('',(19.131395441,0.,-0.235));
#436=DIRECTION('',(-0.,1.,-0.));
#437=DIRECTION('',(0.,0.,1.));
#438=AXIS2_PLACEMENT_3D('',#435,#436,#437);
#439=CIRCLE('',#438,0.5);
#440=EDGE_CURVE('',#310,#35,#439,.T.);
#441=ORIENTED_EDGE('',*,*,#440,.F.);
#442=ORIENTED_EDGE('',*,*,#332,.F.);
#443=ORIENTED_EDGE('',*,*,#440,.T.);
#444=ORIENTED_EDGE('',*,*,#56,.F.);
#445=ORIENTED_EDGE('',*,*,#49,.F.);
#446=EDGE_LOOP('',(#441,#442,#443,#444,#445));
#447=FACE_BOUND('',#446,.T.);
#448=ADVANCED_FACE('',(#447),#434,.F.);
#449=CARTESIAN_POINT('',(0.1,0.,-2.));
#450=DIRECTION('',(1.,0.,0.));
#451=DIRECTION('',(0.,0.,-1.));
#452=AXIS2_PLACEMENT_3D('',#449,#450,#451);
#453=CONICAL_SURFACE('',#452,1.525,45.);
#454=CARTESIAN_POINT('',(0.1,0.,-3.525));
#455=DIRECTION('',(-0.707106781,-0.,0.707106781));
#456=VECTOR('',#455,0.141421356);
#457=LINE('',#454,#456);
#458=EDGE_CURVE('',#60,#343,#457,.T.);
#459=ORIENTED_EDGE('',*,*,#458,.T.);
#460=ORIENTED_EDGE('',*,*,#349,.F.);
#461=ORIENTED_EDGE('',*,*,#458,.F.);
#462=ORIENTED_EDGE('',*,*,#66,.F.);
#463=ORIENTED_EDGE('',*,*,#73,.F.);
#464=EDGE_LOOP('',(#459,#460,#461,#462,#463));
#465=FACE_BOUND('',#464,.T.);
#466=ADVANCED_FACE('',(#465),#453,.T.);
#467=CLOSED_SHELL('',(#77,#128,#163,#198,#224,#275,#303,#336,#353,#372,#391,#410,#429,#448,#466));
#468=MANIFOLD_SOLID_BREP('Corps 02',#467);
#469=COLOUR_RGB('',0.80392158,0.80392158,0.80392158);
#470=FILL_AREA_STYLE_COLOUR('',#469);
#471=FILL_AREA_STYLE('',(#470));
#472=SURFACE_STYLE_FILL_AREA(#471);
#473=SURFACE_SIDE_STYLE('',(#472));
#474=SURFACE_STYLE_USAGE(.BOTH.,#473);
#475=PRESENTATION_STYLE_ASSIGNMENT((#474));
#26=STYLED_ITEM('',(#475),#468);
#16=SHAPE_REPRESENTATION('root',(#15),#10);
#17=ADVANCED_BREP_SHAPE_REPRESENTATION('root',(#468),#10);
#483=SHAPE_REPRESENTATION_RELATIONSHIP('','',#16,#17);
#484=APPLICATION_CONTEXT('data for automotive mechanical design processes');
#485=APPLICATION_PROTOCOL_DEFINITION('international standard','automotive_design',1994,#484);
#486=PRODUCT_CONTEXT('',#484,'mechanical');
#487=PRODUCT_DEFINITION_CONTEXT('part definition',#484,'design');
#24=PRODUCT('root','root','',(#486));
#488=PRODUCT_RELATED_PRODUCT_CATEGORY('part','',(#24));
#489=PRODUCT_DEFINITION_FORMATION_WITH_SPECIFIED_SOURCE('','',#24,.NOT_KNOWN.);
#25=PRODUCT_DEFINITION('design','',#489,#487);
#23=PRODUCT_DEFINITION_SHAPE('','',#25);
#490=SHAPE_DEFINITION_REPRESENTATION(#23,#16);
#11=DRAUGHTING_MODEL('',(),#10);
#1=MECHANICAL_DESIGN_GEOMETRIC_PRESENTATION_REPRESENTATION('',(#26),#10);
ENDSEC;
END-ISO-10303-21;
