ISO-10303-21;
HEADER;
FILE_DESCRIPTION(('CATIA V5 STEP','CAx-IF Rec.Pracs.--- Model Styling and Organization---1.4--- 2014-01-23'),'2;1');

FILE_NAME('C:\\Users\\lvassieu\\Desktop\\Bureau\\Nouveau dossier\\Rehausse bedane\\PRT_rehausse fixe_ep25mm.stp','2023-07-26T10:13:42+00:00',('none'),('none'),'CATIA Version 5-6 Release 2019 SP3 HF67','CATIA V5 STEP AP214 v1','none');

FILE_SCHEMA(('AUTOMOTIVE_DESIGN { 1 0 10303 214 1 1 1 1 }'));

ENDSEC;
DATA;
#5=PRODUCT('rehausse fixe','','',(#2)) ;
#2=PRODUCT_CONTEXT(' ',#1,'mechanical') ;
#1=APPLICATION_CONTEXT('automotive design') ;
#10=PRODUCT_DEFINITION('',' ',#6,#3) ;
#3=PRODUCT_DEFINITION_CONTEXT('part definition',#1,' ') ;
#11=PRODUCT_DEFINITION_SHAPE(' ',' ',#10) ;
#508=MECHANICAL_DESIGN_GEOMETRIC_PRESENTATION_REPRESENTATION(' ',(#29),#16) ;
#509=MECHANICAL_DESIGN_GEOMETRIC_PRESENTATION_REPRESENTATION(' ',(#505),#16) ;
#19=SHAPE_REPRESENTATION(' ',(#18),#16) ;
#18=AXIS2_PLACEMENT_3D(' ',#17,$,$) ;
#34=AXIS2_PLACEMENT_3D('Plane Axis2P3D',#31,#32,#33) ;
#74=AXIS2_PLACEMENT_3D('Plane Axis2P3D',#71,#72,#73) ;
#131=AXIS2_PLACEMENT_3D('Plane Axis2P3D',#128,#129,#130) ;
#162=AXIS2_PLACEMENT_3D('Plane Axis2P3D',#159,#160,#161) ;
#210=AXIS2_PLACEMENT_3D('Cylinder Axis2P3D',#207,#208,#209) ;
#214=AXIS2_PLACEMENT_3D('Circle Axis2P3D',#212,#213,$) ;
#230=AXIS2_PLACEMENT_3D('Circle Axis2P3D',#228,#229,$) ;
#249=AXIS2_PLACEMENT_3D('Circle Axis2P3D',#247,#248,$) ;
#254=AXIS2_PLACEMENT_3D('Circle Axis2P3D',#252,#253,$) ;
#267=AXIS2_PLACEMENT_3D('Cylinder Axis2P3D',#264,#265,#266) ;
#271=AXIS2_PLACEMENT_3D('Circle Axis2P3D',#269,#270,$) ;
#287=AXIS2_PLACEMENT_3D('Circle Axis2P3D',#285,#286,$) ;
#306=AXIS2_PLACEMENT_3D('Circle Axis2P3D',#304,#305,$) ;
#311=AXIS2_PLACEMENT_3D('Circle Axis2P3D',#309,#310,$) ;
#324=AXIS2_PLACEMENT_3D('Cylinder Axis2P3D',#321,#322,#323) ;
#328=AXIS2_PLACEMENT_3D('Circle Axis2P3D',#326,#327,$) ;
#344=AXIS2_PLACEMENT_3D('Circle Axis2P3D',#342,#343,$) ;
#363=AXIS2_PLACEMENT_3D('Circle Axis2P3D',#361,#362,$) ;
#368=AXIS2_PLACEMENT_3D('Circle Axis2P3D',#366,#367,$) ;
#381=AXIS2_PLACEMENT_3D('Cylinder Axis2P3D',#378,#379,#380) ;
#385=AXIS2_PLACEMENT_3D('Circle Axis2P3D',#383,#384,$) ;
#401=AXIS2_PLACEMENT_3D('Circle Axis2P3D',#399,#400,$) ;
#420=AXIS2_PLACEMENT_3D('Circle Axis2P3D',#418,#419,$) ;
#425=AXIS2_PLACEMENT_3D('Circle Axis2P3D',#423,#424,$) ;
#438=AXIS2_PLACEMENT_3D('Plane Axis2P3D',#435,#436,#437) ;
#468=AXIS2_PLACEMENT_3D('Plane Axis2P3D',#465,#466,#467) ;
#500=AXIS2_PLACEMENT_3D('Absolute Axis System',#497,#498,#499) ;
#17=CARTESIAN_POINT(' ',(0.,0.,0.)) ;
#31=CARTESIAN_POINT('Axis2P3D Location',(-60.,57.5,0.)) ;
#36=CARTESIAN_POINT('Line Origine',(-60.,57.5,12.5)) ;
#40=CARTESIAN_POINT('Vertex',(-60.,57.5,0.)) ;
#42=CARTESIAN_POINT('Vertex',(-60.,57.5,25.)) ;
#45=CARTESIAN_POINT('Line Origine',(-60.,0.,0.)) ;
#49=CARTESIAN_POINT('Vertex',(-60.,-57.5,0.)) ;
#52=CARTESIAN_POINT('Line Origine',(-60.,-57.5,12.5)) ;
#56=CARTESIAN_POINT('Vertex',(-60.,-57.5,25.)) ;
#59=CARTESIAN_POINT('Line Origine',(-60.,0.,25.)) ;
#71=CARTESIAN_POINT('Axis2P3D Location',(0.,-57.5,0.)) ;
#76=CARTESIAN_POINT('Line Origine',(-30.,-57.5,0.)) ;
#80=CARTESIAN_POINT('Vertex',(0.,-57.5,0.)) ;
#83=CARTESIAN_POINT('Line Origine',(0.,-57.5,12.5)) ;
#87=CARTESIAN_POINT('Vertex',(0.,-57.5,25.)) ;
#90=CARTESIAN_POINT('Line Origine',(-30.,-57.5,25.)) ;
#102=CARTESIAN_POINT('Line Origine',(30.,-57.5,0.)) ;
#106=CARTESIAN_POINT('Vertex',(60.,-57.5,0.)) ;
#109=CARTESIAN_POINT('Line Origine',(60.,-57.5,12.5)) ;
#113=CARTESIAN_POINT('Vertex',(60.,-57.5,25.)) ;
#116=CARTESIAN_POINT('Line Origine',(30.,-57.5,25.)) ;
#128=CARTESIAN_POINT('Axis2P3D Location',(60.,57.5,0.)) ;
#133=CARTESIAN_POINT('Line Origine',(60.,0.,0.)) ;
#137=CARTESIAN_POINT('Vertex',(60.,57.5,0.)) ;
#140=CARTESIAN_POINT('Line Origine',(60.,57.5,12.5)) ;
#144=CARTESIAN_POINT('Vertex',(60.,57.5,25.)) ;
#147=CARTESIAN_POINT('Line Origine',(60.,0.,25.)) ;
#159=CARTESIAN_POINT('Axis2P3D Location',(60.,57.5,0.)) ;
#164=CARTESIAN_POINT('Line Origine',(30.,57.5,0.)) ;
#168=CARTESIAN_POINT('Vertex',(-3.5527136788E-15,57.5,0.)) ;
#171=CARTESIAN_POINT('Line Origine',(0.,57.5,12.5)) ;
#175=CARTESIAN_POINT('Vertex',(-3.5527136788E-15,57.5,25.)) ;
#178=CARTESIAN_POINT('Line Origine',(30.,57.5,25.)) ;
#190=CARTESIAN_POINT('Line Origine',(-30.,57.5,0.)) ;
#195=CARTESIAN_POINT('Line Origine',(-30.,57.5,25.)) ;
#207=CARTESIAN_POINT('Axis2P3D Location',(-40.,32.5,12.5)) ;
#212=CARTESIAN_POINT('Axis2P3D Location',(-40.,32.5,25.)) ;
#216=CARTESIAN_POINT('Vertex',(-44.5,32.5,25.)) ;
#218=CARTESIAN_POINT('Vertex',(-35.5,32.5,25.)) ;
#221=CARTESIAN_POINT('Line Origine',(-35.5,32.5,12.5)) ;
#225=CARTESIAN_POINT('Vertex',(-35.5,32.5,0.)) ;
#228=CARTESIAN_POINT('Axis2P3D Location',(-40.,32.5,0.)) ;
#232=CARTESIAN_POINT('Vertex',(-44.5,32.5,0.)) ;
#235=CARTESIAN_POINT('Line Origine',(-44.5,32.5,12.5)) ;
#247=CARTESIAN_POINT('Axis2P3D Location',(-40.,32.5,25.)) ;
#252=CARTESIAN_POINT('Axis2P3D Location',(-40.,32.5,0.)) ;
#264=CARTESIAN_POINT('Axis2P3D Location',(40.,32.5,12.5)) ;
#269=CARTESIAN_POINT('Axis2P3D Location',(40.,32.5,25.)) ;
#273=CARTESIAN_POINT('Vertex',(44.5,32.5,25.)) ;
#275=CARTESIAN_POINT('Vertex',(35.5,32.5,25.)) ;
#278=CARTESIAN_POINT('Line Origine',(35.5,32.5,12.5)) ;
#282=CARTESIAN_POINT('Vertex',(35.5,32.5,0.)) ;
#285=CARTESIAN_POINT('Axis2P3D Location',(40.,32.5,0.)) ;
#289=CARTESIAN_POINT('Vertex',(44.5,32.5,0.)) ;
#292=CARTESIAN_POINT('Line Origine',(44.5,32.5,12.5)) ;
#304=CARTESIAN_POINT('Axis2P3D Location',(40.,32.5,25.)) ;
#309=CARTESIAN_POINT('Axis2P3D Location',(40.,32.5,0.)) ;
#321=CARTESIAN_POINT('Axis2P3D Location',(-40.,-32.5,12.5)) ;
#326=CARTESIAN_POINT('Axis2P3D Location',(-40.,-32.5,25.)) ;
#330=CARTESIAN_POINT('Vertex',(-44.5,-32.5,25.)) ;
#332=CARTESIAN_POINT('Vertex',(-35.5,-32.5,25.)) ;
#335=CARTESIAN_POINT('Line Origine',(-35.5,-32.5,12.5)) ;
#339=CARTESIAN_POINT('Vertex',(-35.5,-32.5,0.)) ;
#342=CARTESIAN_POINT('Axis2P3D Location',(-40.,-32.5,0.)) ;
#346=CARTESIAN_POINT('Vertex',(-44.5,-32.5,0.)) ;
#349=CARTESIAN_POINT('Line Origine',(-44.5,-32.5,12.5)) ;
#361=CARTESIAN_POINT('Axis2P3D Location',(-40.,-32.5,25.)) ;
#366=CARTESIAN_POINT('Axis2P3D Location',(-40.,-32.5,0.)) ;
#378=CARTESIAN_POINT('Axis2P3D Location',(40.,-32.5,12.5)) ;
#383=CARTESIAN_POINT('Axis2P3D Location',(40.,-32.5,25.)) ;
#387=CARTESIAN_POINT('Vertex',(44.5,-32.5,25.)) ;
#389=CARTESIAN_POINT('Vertex',(35.5,-32.5,25.)) ;
#392=CARTESIAN_POINT('Line Origine',(35.5,-32.5,12.5)) ;
#396=CARTESIAN_POINT('Vertex',(35.5,-32.5,0.)) ;
#399=CARTESIAN_POINT('Axis2P3D Location',(40.,-32.5,0.)) ;
#403=CARTESIAN_POINT('Vertex',(44.5,-32.5,0.)) ;
#406=CARTESIAN_POINT('Line Origine',(44.5,-32.5,12.5)) ;
#418=CARTESIAN_POINT('Axis2P3D Location',(40.,-32.5,25.)) ;
#423=CARTESIAN_POINT('Axis2P3D Location',(40.,-32.5,0.)) ;
#435=CARTESIAN_POINT('Axis2P3D Location',(0.,0.,0.)) ;
#465=CARTESIAN_POINT('Axis2P3D Location',(0.,0.,25.)) ;
#497=CARTESIAN_POINT('Axis2P3D Location',(0.,0.,0.)) ;
#32=DIRECTION('Axis2P3D Direction',(-1.,0.,0.)) ;
#33=DIRECTION('Axis2P3D XDirection',(0.,-1.,0.)) ;
#37=DIRECTION('Vector Direction',(0.,0.,1.)) ;
#46=DIRECTION('Vector Direction',(0.,-1.,0.)) ;
#53=DIRECTION('Vector Direction',(0.,0.,1.)) ;
#60=DIRECTION('Vector Direction',(0.,-1.,0.)) ;
#72=DIRECTION('Axis2P3D Direction',(0.,1.,-0.)) ;
#73=DIRECTION('Axis2P3D XDirection',(-1.,0.,0.)) ;
#77=DIRECTION('Vector Direction',(-1.,0.,0.)) ;
#84=DIRECTION('Vector Direction',(0.,0.,1.)) ;
#91=DIRECTION('Vector Direction',(-1.,0.,0.)) ;
#103=DIRECTION('Vector Direction',(1.,0.,0.)) ;
#110=DIRECTION('Vector Direction',(0.,0.,1.)) ;
#117=DIRECTION('Vector Direction',(1.,0.,0.)) ;
#129=DIRECTION('Axis2P3D Direction',(-1.,0.,0.)) ;
#130=DIRECTION('Axis2P3D XDirection',(0.,-1.,0.)) ;
#134=DIRECTION('Vector Direction',(0.,-1.,0.)) ;
#141=DIRECTION('Vector Direction',(0.,0.,1.)) ;
#148=DIRECTION('Vector Direction',(0.,-1.,0.)) ;
#160=DIRECTION('Axis2P3D Direction',(0.,1.,-0.)) ;
#161=DIRECTION('Axis2P3D XDirection',(-1.,0.,0.)) ;
#165=DIRECTION('Vector Direction',(-1.,0.,0.)) ;
#172=DIRECTION('Vector Direction',(0.,0.,1.)) ;
#179=DIRECTION('Vector Direction',(-1.,0.,0.)) ;
#191=DIRECTION('Vector Direction',(1.,0.,0.)) ;
#196=DIRECTION('Vector Direction',(1.,0.,0.)) ;
#208=DIRECTION('Axis2P3D Direction',(0.,0.,1.)) ;
#209=DIRECTION('Axis2P3D XDirection',(1.,0.,0.)) ;
#213=DIRECTION('Axis2P3D Direction',(0.,0.,1.)) ;
#222=DIRECTION('Vector Direction',(0.,0.,1.)) ;
#229=DIRECTION('Axis2P3D Direction',(0.,0.,1.)) ;
#236=DIRECTION('Vector Direction',(0.,0.,1.)) ;
#248=DIRECTION('Axis2P3D Direction',(0.,0.,1.)) ;
#253=DIRECTION('Axis2P3D Direction',(0.,0.,1.)) ;
#265=DIRECTION('Axis2P3D Direction',(0.,0.,1.)) ;
#266=DIRECTION('Axis2P3D XDirection',(-1.,1.22464679915E-16,0.)) ;
#270=DIRECTION('Axis2P3D Direction',(0.,0.,1.)) ;
#279=DIRECTION('Vector Direction',(0.,0.,1.)) ;
#286=DIRECTION('Axis2P3D Direction',(0.,0.,1.)) ;
#293=DIRECTION('Vector Direction',(0.,0.,1.)) ;
#305=DIRECTION('Axis2P3D Direction',(0.,0.,1.)) ;
#310=DIRECTION('Axis2P3D Direction',(0.,0.,1.)) ;
#322=DIRECTION('Axis2P3D Direction',(0.,0.,1.)) ;
#323=DIRECTION('Axis2P3D XDirection',(1.,0.,0.)) ;
#327=DIRECTION('Axis2P3D Direction',(0.,0.,1.)) ;
#336=DIRECTION('Vector Direction',(0.,0.,1.)) ;
#343=DIRECTION('Axis2P3D Direction',(0.,0.,1.)) ;
#350=DIRECTION('Vector Direction',(0.,0.,1.)) ;
#362=DIRECTION('Axis2P3D Direction',(0.,0.,1.)) ;
#367=DIRECTION('Axis2P3D Direction',(0.,0.,1.)) ;
#379=DIRECTION('Axis2P3D Direction',(0.,0.,1.)) ;
#380=DIRECTION('Axis2P3D XDirection',(-1.,1.22464679915E-16,0.)) ;
#384=DIRECTION('Axis2P3D Direction',(0.,0.,1.)) ;
#393=DIRECTION('Vector Direction',(0.,0.,1.)) ;
#400=DIRECTION('Axis2P3D Direction',(0.,0.,1.)) ;
#407=DIRECTION('Vector Direction',(0.,0.,1.)) ;
#419=DIRECTION('Axis2P3D Direction',(0.,0.,1.)) ;
#424=DIRECTION('Axis2P3D Direction',(0.,0.,1.)) ;
#436=DIRECTION('Axis2P3D Direction',(0.,0.,1.)) ;
#437=DIRECTION('Axis2P3D XDirection',(1.,0.,0.)) ;
#466=DIRECTION('Axis2P3D Direction',(0.,0.,1.)) ;
#467=DIRECTION('Axis2P3D XDirection',(1.,0.,0.)) ;
#498=DIRECTION('Axis2P3D Direction',(0.,0.,1.)) ;
#499=DIRECTION('Axis2P3D XDirection',(1.,0.,0.)) ;
#8=PRODUCT_RELATED_PRODUCT_CATEGORY('part',$,(#5)) ;
#7=PRODUCT_CATEGORY('part','specification') ;
#29=STYLED_ITEM(' ',(#28),#21) ;
#505=STYLED_ITEM(' ',(#504),#500) ;
#28=PRESENTATION_STYLE_ASSIGNMENT((#27)) ;
#504=PRESENTATION_STYLE_ASSIGNMENT((#503)) ;
#503=CURVE_STYLE(' ',#501,POSITIVE_LENGTH_MEASURE(0.129999995232),#502) ;
#27=SURFACE_STYLE_USAGE(.BOTH.,#26) ;
#26=SURFACE_SIDE_STYLE(' ',(#25)) ;
#25=SURFACE_STYLE_FILL_AREA(#24) ;
#24=FILL_AREA_STYLE(' ',(#23)) ;
#23=FILL_AREA_STYLE_COLOUR(' ',#22) ;
#38=VECTOR('Line Direction',#37,1.) ;
#47=VECTOR('Line Direction',#46,1.) ;
#54=VECTOR('Line Direction',#53,1.) ;
#61=VECTOR('Line Direction',#60,1.) ;
#78=VECTOR('Line Direction',#77,1.) ;
#85=VECTOR('Line Direction',#84,1.) ;
#92=VECTOR('Line Direction',#91,1.) ;
#104=VECTOR('Line Direction',#103,1.) ;
#111=VECTOR('Line Direction',#110,1.) ;
#118=VECTOR('Line Direction',#117,1.) ;
#135=VECTOR('Line Direction',#134,1.) ;
#142=VECTOR('Line Direction',#141,1.) ;
#149=VECTOR('Line Direction',#148,1.) ;
#166=VECTOR('Line Direction',#165,1.) ;
#173=VECTOR('Line Direction',#172,1.) ;
#180=VECTOR('Line Direction',#179,1.) ;
#192=VECTOR('Line Direction',#191,1.) ;
#197=VECTOR('Line Direction',#196,1.) ;
#223=VECTOR('Line Direction',#222,1.) ;
#237=VECTOR('Line Direction',#236,1.) ;
#280=VECTOR('Line Direction',#279,1.) ;
#294=VECTOR('Line Direction',#293,1.) ;
#337=VECTOR('Line Direction',#336,1.) ;
#351=VECTOR('Line Direction',#350,1.) ;
#394=VECTOR('Line Direction',#393,1.) ;
#408=VECTOR('Line Direction',#407,1.) ;
#15=UNCERTAINTY_MEASURE_WITH_UNIT(LENGTH_MEASURE(0.005),#12,'distance_accuracy_value','CONFUSED CURVE UNCERTAINTY') ;
#496=SHAPE_REPRESENTATION_RELATIONSHIP(' ',' ',#19,#495) ;
#65=ORIENTED_EDGE('',*,*,#44,.F.) ;
#66=ORIENTED_EDGE('',*,*,#51,.T.) ;
#67=ORIENTED_EDGE('',*,*,#58,.T.) ;
#68=ORIENTED_EDGE('',*,*,#63,.F.) ;
#96=ORIENTED_EDGE('',*,*,#58,.F.) ;
#97=ORIENTED_EDGE('',*,*,#82,.T.) ;
#98=ORIENTED_EDGE('',*,*,#89,.T.) ;
#99=ORIENTED_EDGE('',*,*,#94,.F.) ;
#122=ORIENTED_EDGE('',*,*,#89,.F.) ;
#123=ORIENTED_EDGE('',*,*,#108,.T.) ;
#124=ORIENTED_EDGE('',*,*,#115,.T.) ;
#125=ORIENTED_EDGE('',*,*,#120,.F.) ;
#153=ORIENTED_EDGE('',*,*,#115,.F.) ;
#154=ORIENTED_EDGE('',*,*,#139,.T.) ;
#155=ORIENTED_EDGE('',*,*,#146,.T.) ;
#156=ORIENTED_EDGE('',*,*,#151,.F.) ;
#184=ORIENTED_EDGE('',*,*,#146,.F.) ;
#185=ORIENTED_EDGE('',*,*,#170,.T.) ;
#186=ORIENTED_EDGE('',*,*,#177,.T.) ;
#187=ORIENTED_EDGE('',*,*,#182,.F.) ;
#201=ORIENTED_EDGE('',*,*,#177,.F.) ;
#202=ORIENTED_EDGE('',*,*,#194,.T.) ;
#203=ORIENTED_EDGE('',*,*,#44,.T.) ;
#204=ORIENTED_EDGE('',*,*,#199,.F.) ;
#241=ORIENTED_EDGE('',*,*,#220,.T.) ;
#242=ORIENTED_EDGE('',*,*,#227,.F.) ;
#243=ORIENTED_EDGE('',*,*,#234,.F.) ;
#244=ORIENTED_EDGE('',*,*,#239,.T.) ;
#258=ORIENTED_EDGE('',*,*,#251,.T.) ;
#259=ORIENTED_EDGE('',*,*,#239,.F.) ;
#260=ORIENTED_EDGE('',*,*,#256,.F.) ;
#261=ORIENTED_EDGE('',*,*,#227,.T.) ;
#298=ORIENTED_EDGE('',*,*,#277,.T.) ;
#299=ORIENTED_EDGE('',*,*,#284,.F.) ;
#300=ORIENTED_EDGE('',*,*,#291,.F.) ;
#301=ORIENTED_EDGE('',*,*,#296,.T.) ;
#315=ORIENTED_EDGE('',*,*,#308,.T.) ;
#316=ORIENTED_EDGE('',*,*,#296,.F.) ;
#317=ORIENTED_EDGE('',*,*,#313,.F.) ;
#318=ORIENTED_EDGE('',*,*,#284,.T.) ;
#355=ORIENTED_EDGE('',*,*,#334,.T.) ;
#356=ORIENTED_EDGE('',*,*,#341,.F.) ;
#357=ORIENTED_EDGE('',*,*,#348,.F.) ;
#358=ORIENTED_EDGE('',*,*,#353,.T.) ;
#372=ORIENTED_EDGE('',*,*,#365,.T.) ;
#373=ORIENTED_EDGE('',*,*,#353,.F.) ;
#374=ORIENTED_EDGE('',*,*,#370,.F.) ;
#375=ORIENTED_EDGE('',*,*,#341,.T.) ;
#412=ORIENTED_EDGE('',*,*,#391,.T.) ;
#413=ORIENTED_EDGE('',*,*,#398,.F.) ;
#414=ORIENTED_EDGE('',*,*,#405,.F.) ;
#415=ORIENTED_EDGE('',*,*,#410,.T.) ;
#429=ORIENTED_EDGE('',*,*,#422,.T.) ;
#430=ORIENTED_EDGE('',*,*,#410,.F.) ;
#431=ORIENTED_EDGE('',*,*,#427,.F.) ;
#432=ORIENTED_EDGE('',*,*,#398,.T.) ;
#441=ORIENTED_EDGE('',*,*,#194,.F.) ;
#442=ORIENTED_EDGE('',*,*,#170,.F.) ;
#443=ORIENTED_EDGE('',*,*,#139,.F.) ;
#444=ORIENTED_EDGE('',*,*,#108,.F.) ;
#445=ORIENTED_EDGE('',*,*,#82,.F.) ;
#446=ORIENTED_EDGE('',*,*,#51,.F.) ;
#449=ORIENTED_EDGE('',*,*,#256,.T.) ;
#450=ORIENTED_EDGE('',*,*,#234,.T.) ;
#453=ORIENTED_EDGE('',*,*,#313,.T.) ;
#454=ORIENTED_EDGE('',*,*,#291,.T.) ;
#457=ORIENTED_EDGE('',*,*,#370,.T.) ;
#458=ORIENTED_EDGE('',*,*,#348,.T.) ;
#461=ORIENTED_EDGE('',*,*,#427,.T.) ;
#462=ORIENTED_EDGE('',*,*,#405,.T.) ;
#471=ORIENTED_EDGE('',*,*,#63,.T.) ;
#472=ORIENTED_EDGE('',*,*,#94,.T.) ;
#473=ORIENTED_EDGE('',*,*,#120,.T.) ;
#474=ORIENTED_EDGE('',*,*,#151,.T.) ;
#475=ORIENTED_EDGE('',*,*,#182,.T.) ;
#476=ORIENTED_EDGE('',*,*,#199,.T.) ;
#479=ORIENTED_EDGE('',*,*,#220,.F.) ;
#480=ORIENTED_EDGE('',*,*,#251,.F.) ;
#483=ORIENTED_EDGE('',*,*,#277,.F.) ;
#484=ORIENTED_EDGE('',*,*,#308,.F.) ;
#487=ORIENTED_EDGE('',*,*,#334,.F.) ;
#488=ORIENTED_EDGE('',*,*,#365,.F.) ;
#491=ORIENTED_EDGE('',*,*,#391,.F.) ;
#492=ORIENTED_EDGE('',*,*,#422,.F.) ;
#451=FACE_BOUND('',#448,.T.) ;
#455=FACE_BOUND('',#452,.T.) ;
#459=FACE_BOUND('',#456,.T.) ;
#463=FACE_BOUND('',#460,.T.) ;
#481=FACE_BOUND('',#478,.T.) ;
#485=FACE_BOUND('',#482,.T.) ;
#489=FACE_BOUND('',#486,.T.) ;
#493=FACE_BOUND('',#490,.T.) ;
#30=CLOSED_SHELL('Closed Shell',(#70,#101,#127,#158,#189,#206,#246,#263,#303,#320,#360,#377,#417,#434,#464,#494)) ;
#495=ADVANCED_BREP_SHAPE_REPRESENTATION('NONE',(#21),#16) ;
#70=ADVANCED_FACE('PartBody',(#69),#35,.T.) ;
#101=ADVANCED_FACE('PartBody',(#100),#75,.F.) ;
#127=ADVANCED_FACE('PartBody',(#126),#75,.F.) ;
#158=ADVANCED_FACE('PartBody',(#157),#132,.F.) ;
#189=ADVANCED_FACE('PartBody',(#188),#163,.T.) ;
#206=ADVANCED_FACE('PartBody',(#205),#163,.T.) ;
#246=ADVANCED_FACE('PartBody',(#245),#211,.F.) ;
#263=ADVANCED_FACE('PartBody',(#262),#211,.F.) ;
#303=ADVANCED_FACE('PartBody',(#302),#268,.F.) ;
#320=ADVANCED_FACE('PartBody',(#319),#268,.F.) ;
#360=ADVANCED_FACE('PartBody',(#359),#325,.F.) ;
#377=ADVANCED_FACE('PartBody',(#376),#325,.F.) ;
#417=ADVANCED_FACE('PartBody',(#416),#382,.F.) ;
#434=ADVANCED_FACE('PartBody',(#433),#382,.F.) ;
#464=ADVANCED_FACE('PartBody',(#447,#451,#455,#459,#463),#439,.F.) ;
#494=ADVANCED_FACE('PartBody',(#477,#481,#485,#489,#493),#469,.T.) ;
#4=APPLICATION_PROTOCOL_DEFINITION('international standard','automotive_design',2001,#1) ;
#21=MANIFOLD_SOLID_BREP('PartBody',#30) ;
#215=CIRCLE('generated circle',#214,4.5) ;
#231=CIRCLE('generated circle',#230,4.5) ;
#250=CIRCLE('generated circle',#249,4.5) ;
#255=CIRCLE('generated circle',#254,4.5) ;
#272=CIRCLE('generated circle',#271,4.5) ;
#288=CIRCLE('generated circle',#287,4.5) ;
#307=CIRCLE('generated circle',#306,4.5) ;
#312=CIRCLE('generated circle',#311,4.5) ;
#329=CIRCLE('generated circle',#328,4.5) ;
#345=CIRCLE('generated circle',#344,4.5) ;
#364=CIRCLE('generated circle',#363,4.5) ;
#369=CIRCLE('generated circle',#368,4.5) ;
#386=CIRCLE('generated circle',#385,4.5) ;
#402=CIRCLE('generated circle',#401,4.5) ;
#421=CIRCLE('generated circle',#420,4.5) ;
#426=CIRCLE('generated circle',#425,4.5) ;
#22=COLOUR_RGB('Colour',0.823529411765,0.823529411765,1.) ;
#506=CONSTRUCTIVE_GEOMETRY_REPRESENTATION('supplemental geometry',(#500),#16) ;
#507=CONSTRUCTIVE_GEOMETRY_REPRESENTATION_RELATIONSHIP('supplemental geometry','',#19,#506) ;
#211=CYLINDRICAL_SURFACE('generated cylinder',#210,4.5) ;
#268=CYLINDRICAL_SURFACE('generated cylinder',#267,4.5) ;
#325=CYLINDRICAL_SURFACE('generated cylinder',#324,4.5) ;
#382=CYLINDRICAL_SURFACE('generated cylinder',#381,4.5) ;
#502=DRAUGHTING_PRE_DEFINED_COLOUR('white') ;
#501=DRAUGHTING_PRE_DEFINED_CURVE_FONT('continuous') ;
#44=EDGE_CURVE('',#41,#43,#39,.T.) ;
#51=EDGE_CURVE('',#41,#50,#48,.T.) ;
#58=EDGE_CURVE('',#50,#57,#55,.T.) ;
#63=EDGE_CURVE('',#43,#57,#62,.T.) ;
#82=EDGE_CURVE('',#50,#81,#79,.F.) ;
#89=EDGE_CURVE('',#81,#88,#86,.T.) ;
#94=EDGE_CURVE('',#57,#88,#93,.F.) ;
#108=EDGE_CURVE('',#81,#107,#105,.T.) ;
#115=EDGE_CURVE('',#107,#114,#112,.T.) ;
#120=EDGE_CURVE('',#88,#114,#119,.T.) ;
#139=EDGE_CURVE('',#107,#138,#136,.F.) ;
#146=EDGE_CURVE('',#138,#145,#143,.T.) ;
#151=EDGE_CURVE('',#114,#145,#150,.F.) ;
#170=EDGE_CURVE('',#138,#169,#167,.T.) ;
#177=EDGE_CURVE('',#169,#176,#174,.T.) ;
#182=EDGE_CURVE('',#145,#176,#181,.T.) ;
#194=EDGE_CURVE('',#169,#41,#193,.F.) ;
#199=EDGE_CURVE('',#176,#43,#198,.F.) ;
#220=EDGE_CURVE('',#217,#219,#215,.T.) ;
#227=EDGE_CURVE('',#226,#219,#224,.T.) ;
#234=EDGE_CURVE('',#233,#226,#231,.T.) ;
#239=EDGE_CURVE('',#233,#217,#238,.T.) ;
#251=EDGE_CURVE('',#219,#217,#250,.T.) ;
#256=EDGE_CURVE('',#226,#233,#255,.T.) ;
#277=EDGE_CURVE('',#274,#276,#272,.T.) ;
#284=EDGE_CURVE('',#283,#276,#281,.T.) ;
#291=EDGE_CURVE('',#290,#283,#288,.T.) ;
#296=EDGE_CURVE('',#290,#274,#295,.T.) ;
#308=EDGE_CURVE('',#276,#274,#307,.T.) ;
#313=EDGE_CURVE('',#283,#290,#312,.T.) ;
#334=EDGE_CURVE('',#331,#333,#329,.T.) ;
#341=EDGE_CURVE('',#340,#333,#338,.T.) ;
#348=EDGE_CURVE('',#347,#340,#345,.T.) ;
#353=EDGE_CURVE('',#347,#331,#352,.T.) ;
#365=EDGE_CURVE('',#333,#331,#364,.T.) ;
#370=EDGE_CURVE('',#340,#347,#369,.T.) ;
#391=EDGE_CURVE('',#388,#390,#386,.T.) ;
#398=EDGE_CURVE('',#397,#390,#395,.T.) ;
#405=EDGE_CURVE('',#404,#397,#402,.T.) ;
#410=EDGE_CURVE('',#404,#388,#409,.T.) ;
#422=EDGE_CURVE('',#390,#388,#421,.T.) ;
#427=EDGE_CURVE('',#397,#404,#426,.T.) ;
#64=EDGE_LOOP('',(#65,#66,#67,#68)) ;
#95=EDGE_LOOP('',(#96,#97,#98,#99)) ;
#121=EDGE_LOOP('',(#122,#123,#124,#125)) ;
#152=EDGE_LOOP('',(#153,#154,#155,#156)) ;
#183=EDGE_LOOP('',(#184,#185,#186,#187)) ;
#200=EDGE_LOOP('',(#201,#202,#203,#204)) ;
#240=EDGE_LOOP('',(#241,#242,#243,#244)) ;
#257=EDGE_LOOP('',(#258,#259,#260,#261)) ;
#297=EDGE_LOOP('',(#298,#299,#300,#301)) ;
#314=EDGE_LOOP('',(#315,#316,#317,#318)) ;
#354=EDGE_LOOP('',(#355,#356,#357,#358)) ;
#371=EDGE_LOOP('',(#372,#373,#374,#375)) ;
#411=EDGE_LOOP('',(#412,#413,#414,#415)) ;
#428=EDGE_LOOP('',(#429,#430,#431,#432)) ;
#440=EDGE_LOOP('',(#441,#442,#443,#444,#445,#446)) ;
#448=EDGE_LOOP('',(#449,#450)) ;
#452=EDGE_LOOP('',(#453,#454)) ;
#456=EDGE_LOOP('',(#457,#458)) ;
#460=EDGE_LOOP('',(#461,#462)) ;
#470=EDGE_LOOP('',(#471,#472,#473,#474,#475,#476)) ;
#478=EDGE_LOOP('',(#479,#480)) ;
#482=EDGE_LOOP('',(#483,#484)) ;
#486=EDGE_LOOP('',(#487,#488)) ;
#490=EDGE_LOOP('',(#491,#492)) ;
#69=FACE_OUTER_BOUND('',#64,.T.) ;
#100=FACE_OUTER_BOUND('',#95,.T.) ;
#126=FACE_OUTER_BOUND('',#121,.T.) ;
#157=FACE_OUTER_BOUND('',#152,.T.) ;
#188=FACE_OUTER_BOUND('',#183,.T.) ;
#205=FACE_OUTER_BOUND('',#200,.T.) ;
#245=FACE_OUTER_BOUND('',#240,.T.) ;
#262=FACE_OUTER_BOUND('',#257,.T.) ;
#302=FACE_OUTER_BOUND('',#297,.T.) ;
#319=FACE_OUTER_BOUND('',#314,.T.) ;
#359=FACE_OUTER_BOUND('',#354,.T.) ;
#376=FACE_OUTER_BOUND('',#371,.T.) ;
#416=FACE_OUTER_BOUND('',#411,.T.) ;
#433=FACE_OUTER_BOUND('',#428,.T.) ;
#447=FACE_OUTER_BOUND('',#440,.T.) ;
#477=FACE_OUTER_BOUND('',#470,.T.) ;
#39=LINE('Line',#36,#38) ;
#48=LINE('Line',#45,#47) ;
#55=LINE('Line',#52,#54) ;
#62=LINE('Line',#59,#61) ;
#79=LINE('Line',#76,#78) ;
#86=LINE('Line',#83,#85) ;
#93=LINE('Line',#90,#92) ;
#105=LINE('Line',#102,#104) ;
#112=LINE('Line',#109,#111) ;
#119=LINE('Line',#116,#118) ;
#136=LINE('Line',#133,#135) ;
#143=LINE('Line',#140,#142) ;
#150=LINE('Line',#147,#149) ;
#167=LINE('Line',#164,#166) ;
#174=LINE('Line',#171,#173) ;
#181=LINE('Line',#178,#180) ;
#193=LINE('Line',#190,#192) ;
#198=LINE('Line',#195,#197) ;
#224=LINE('Line',#221,#223) ;
#238=LINE('Line',#235,#237) ;
#281=LINE('Line',#278,#280) ;
#295=LINE('Line',#292,#294) ;
#338=LINE('Line',#335,#337) ;
#352=LINE('Line',#349,#351) ;
#395=LINE('Line',#392,#394) ;
#409=LINE('Line',#406,#408) ;
#35=PLANE('',#34) ;
#75=PLANE('',#74) ;
#132=PLANE('',#131) ;
#163=PLANE('',#162) ;
#439=PLANE('',#438) ;
#469=PLANE('',#468) ;
#9=PRODUCT_CATEGORY_RELATIONSHIP(' ',' ',#7,#8) ;
#6=PRODUCT_DEFINITION_FORMATION_WITH_SPECIFIED_SOURCE('',' ',#5,.NOT_KNOWN.) ;
#20=SHAPE_DEFINITION_REPRESENTATION(#11,#19) ;
#41=VERTEX_POINT('',#40) ;
#43=VERTEX_POINT('',#42) ;
#50=VERTEX_POINT('',#49) ;
#57=VERTEX_POINT('',#56) ;
#81=VERTEX_POINT('',#80) ;
#88=VERTEX_POINT('',#87) ;
#107=VERTEX_POINT('',#106) ;
#114=VERTEX_POINT('',#113) ;
#138=VERTEX_POINT('',#137) ;
#145=VERTEX_POINT('',#144) ;
#169=VERTEX_POINT('',#168) ;
#176=VERTEX_POINT('',#175) ;
#217=VERTEX_POINT('',#216) ;
#219=VERTEX_POINT('',#218) ;
#226=VERTEX_POINT('',#225) ;
#233=VERTEX_POINT('',#232) ;
#274=VERTEX_POINT('',#273) ;
#276=VERTEX_POINT('',#275) ;
#283=VERTEX_POINT('',#282) ;
#290=VERTEX_POINT('',#289) ;
#331=VERTEX_POINT('',#330) ;
#333=VERTEX_POINT('',#332) ;
#340=VERTEX_POINT('',#339) ;
#347=VERTEX_POINT('',#346) ;
#388=VERTEX_POINT('',#387) ;
#390=VERTEX_POINT('',#389) ;
#397=VERTEX_POINT('',#396) ;
#404=VERTEX_POINT('',#403) ;
#12=(LENGTH_UNIT()NAMED_UNIT(*)SI_UNIT(.MILLI.,.METRE.)) ;
#13=(NAMED_UNIT(*)PLANE_ANGLE_UNIT()SI_UNIT($,.RADIAN.)) ;
#14=(NAMED_UNIT(*)SI_UNIT($,.STERADIAN.)SOLID_ANGLE_UNIT()) ;
#16=(GEOMETRIC_REPRESENTATION_CONTEXT(3)GLOBAL_UNCERTAINTY_ASSIGNED_CONTEXT((#15))GLOBAL_UNIT_ASSIGNED_CONTEXT((#12,#13,#14))REPRESENTATION_CONTEXT(' ',' ')) ;
ENDSEC;
END-ISO-10303-21;
