ISO-10303-21;
HEADER;
/* Generated by software containing ST-Developer
 * from STEP Tools, Inc. (www.steptools.com) 
 */

FILE_DESCRIPTION(
/* description */ (''),
/* implementation_level */ '2;1');

FILE_NAME(
/* name */ 'vis_prouve v1.step',
/* time_stamp */ '2023-08-22T21:27:13+02:00',
/* author */ (''),
/* organization */ (''),
/* preprocessor_version */ 'ST-DEVELOPER v20',
/* originating_system */ 'Autodesk Translation Framework v12.9.0.99',
/* authorisation */ '');

FILE_SCHEMA (('AUTOMOTIVE_DESIGN { 1 0 10303 214 3 1 1 }'));
ENDSEC;

DATA;
#10=MECHANICAL_DESIGN_GEOMETRIC_PRESENTATION_REPRESENTATION('',(#13),#380);
#11=SHAPE_REPRESENTATION_RELATIONSHIP('SRR','None',#387,#12);
#12=ADVANCED_BREP_SHAPE_REPRESENTATION('',(#14),#379);
#13=STYLED_ITEM('',(#396),#14);
#14=MANIFOLD_SOLID_BREP('Corps1',#148);
#15=FACE_BOUND('',#43,.T.);
#16=FACE_BOUND('',#48,.T.);
#17=FACE_BOUND('',#50,.T.);
#18=(
BOUNDED_CURVE()
B_SPLINE_CURVE(2,(#353,#354,#355),.UNSPECIFIED.,.F.,.F.)
B_SPLINE_CURVE_WITH_KNOTS((3,3),(-1.5707963267949,-1.51573390628615),
 .UNSPECIFIED.)
CURVE()
GEOMETRIC_REPRESENTATION_ITEM()
RATIONAL_B_SPLINE_CURVE((1.,0.991251335762953,0.9832335974883))
REPRESENTATION_ITEM('')
);
#19=(
BOUNDED_CURVE()
B_SPLINE_CURVE(2,(#357,#358,#359),.UNSPECIFIED.,.F.,.F.)
B_SPLINE_CURVE_WITH_KNOTS((3,3),(-1.16754638781715,-0.252680255142079),
 .UNSPECIFIED.)
CURVE()
GEOMETRIC_REPRESENTATION_ITEM()
RATIONAL_B_SPLINE_CURVE((0.911060506511453,0.85464030562645,1.))
REPRESENTATION_ITEM('')
);
#20=(
BOUNDED_SURFACE()
B_SPLINE_SURFACE(2,2,((#324,#325,#326,#327,#328,#329,#330,#331,#332),(#333,
#334,#335,#336,#337,#338,#339,#340,#341),(#342,#343,#344,#345,#346,#347,
#348,#349,#350)),.UNSPECIFIED.,.F.,.T.,.F.)
B_SPLINE_SURFACE_WITH_KNOTS((3,3),(3,2,2,2,3),(0.252680255142079,1.5707963267949),
(-3.14159265358979,-1.5707963267949,0.,1.5707963267949,3.14159265358979),
 .UNSPECIFIED.)
GEOMETRIC_REPRESENTATION_ITEM()
RATIONAL_B_SPLINE_SURFACE(((1.,0.707106781186548,1.,0.707106781186548,1.,
0.707106781186548,1.,0.707106781186548,1.),(0.790569415042094,0.559016994374947,
0.790569415042094,0.559016994374947,0.790569415042094,0.559016994374947,
0.790569415042094,0.559016994374947,0.790569415042094),(1.,0.707106781186548,
1.,0.707106781186548,1.,0.707106781186548,1.,0.707106781186548,1.)))
REPRESENTATION_ITEM('')
SURFACE()
);
#21=PLANE('',#164);
#22=PLANE('',#167);
#23=PLANE('',#170);
#24=PLANE('',#177);
#25=PLANE('',#178);
#26=PLANE('',#179);
#27=FACE_OUTER_BOUND('',#38,.T.);
#28=FACE_OUTER_BOUND('',#39,.T.);
#29=FACE_OUTER_BOUND('',#40,.T.);
#30=FACE_OUTER_BOUND('',#41,.T.);
#31=FACE_OUTER_BOUND('',#42,.T.);
#32=FACE_OUTER_BOUND('',#44,.T.);
#33=FACE_OUTER_BOUND('',#45,.T.);
#34=FACE_OUTER_BOUND('',#46,.T.);
#35=FACE_OUTER_BOUND('',#47,.T.);
#36=FACE_OUTER_BOUND('',#49,.T.);
#37=FACE_OUTER_BOUND('',#51,.T.);
#38=EDGE_LOOP('',(#99,#100,#101,#102,#103));
#39=EDGE_LOOP('',(#104));
#40=EDGE_LOOP('',(#105,#106,#107,#108));
#41=EDGE_LOOP('',(#109));
#42=EDGE_LOOP('',(#110,#111,#112,#113,#114,#115,#116,#117));
#43=EDGE_LOOP('',(#118));
#44=EDGE_LOOP('',(#119));
#45=EDGE_LOOP('',(#120,#121,#122,#123));
#46=EDGE_LOOP('',(#124,#125,#126,#127));
#47=EDGE_LOOP('',(#128));
#48=EDGE_LOOP('',(#129));
#49=EDGE_LOOP('',(#130));
#50=EDGE_LOOP('',(#131));
#51=EDGE_LOOP('',(#132));
#52=CIRCLE('',#163,1.);
#53=CIRCLE('',#166,1.);
#54=CIRCLE('',#168,3.19052498068887);
#55=CIRCLE('',#169,9.);
#56=CIRCLE('',#172,2.117);
#57=CIRCLE('',#173,2.117);
#58=CIRCLE('',#175,4.);
#59=CIRCLE('',#176,4.);
#60=LINE('',#273,#64);
#61=LINE('',#321,#65);
#62=LINE('',#366,#66);
#63=LINE('',#372,#67);
#64=VECTOR('',#184,1.);
#65=VECTOR('',#191,1.);
#66=VECTOR('',#206,2.5);
#67=VECTOR('',#213,4.);
#68=B_SPLINE_CURVE_WITH_KNOTS('',3,(#226,#227,#228,#229,#230,#231,#232,
#233,#234,#235,#236,#237,#238,#239,#240,#241,#242,#243,#244,#245,#246,#247,
#248,#249),.UNSPECIFIED.,.F.,.F.,(4,2,2,2,2,2,2,2,2,2,2,4),(-0.63821870331999,
-0.606096974850682,-0.573060170751478,-0.534008604097648,-0.491541558019339,
-0.464583894368711,-0.444289422231123,-0.42427477609302,-0.397875982671806,
-0.359058226263379,-0.319611847500714,-0.319108636519613),.UNSPECIFIED.);
#69=B_SPLINE_CURVE_WITH_KNOTS('',3,(#250,#251,#252,#253,#254,#255,#256,
#257,#258,#259,#260,#261,#262,#263,#264,#265,#266,#267,#268,#269,#270,#271),
 .UNSPECIFIED.,.F.,.F.,(4,2,2,2,2,2,2,2,2,2,4),(-0.319108636519613,-0.283472897524503,
-0.250279603374531,-0.220141143462173,-0.199214364218676,-0.179536240275054,
-0.155222197304614,-0.118385934132664,-0.0766863219885506,-0.0373621945439012,
0.),.UNSPECIFIED.);
#70=B_SPLINE_CURVE_WITH_KNOTS('',3,(#278,#279,#280,#281,#282,#283,#284,
#285,#286,#287,#288,#289,#290,#291,#292,#293,#294,#295,#296,#297,#298,#299,
#300,#301,#302,#303,#304,#305,#306,#307,#308,#309,#310,#311,#312,#313,#314,
#315,#316,#317,#318,#319),.UNSPECIFIED.,.T.,.F.,(4,2,2,2,2,2,2,2,2,2,2,
2,2,2,2,2,2,2,2,2,4),(-0.638218704152681,-0.606096975651979,-0.573060171481578,
-0.534008604705931,-0.491541558459125,-0.464583894935917,-0.444289422797414,
-0.424274776563419,-0.397875982879064,-0.35905822645464,-0.319611847722781,
-0.283472897774095,-0.250279603604747,-0.220141143558141,-0.199214364242661,
-0.17953624025315,-0.155222197256657,-0.118385934099125,-0.0766863218028613,
-0.0373621944112226,0.),.UNSPECIFIED.);
#71=VERTEX_POINT('',#224);
#72=VERTEX_POINT('',#225);
#73=VERTEX_POINT('',#272);
#74=VERTEX_POINT('',#277);
#75=VERTEX_POINT('',#320);
#76=VERTEX_POINT('',#351);
#77=VERTEX_POINT('',#356);
#78=VERTEX_POINT('',#363);
#79=VERTEX_POINT('',#365);
#80=VERTEX_POINT('',#369);
#81=VERTEX_POINT('',#371);
#82=EDGE_CURVE('',#71,#72,#68,.T.);
#83=EDGE_CURVE('',#72,#71,#69,.T.);
#84=EDGE_CURVE('',#72,#73,#60,.T.);
#85=EDGE_CURVE('',#73,#73,#52,.T.);
#86=EDGE_CURVE('',#74,#74,#70,.T.);
#87=EDGE_CURVE('',#74,#75,#61,.T.);
#88=EDGE_CURVE('',#75,#75,#53,.T.);
#89=EDGE_CURVE('',#76,#76,#54,.T.);
#90=EDGE_CURVE('',#76,#72,#18,.T.);
#91=EDGE_CURVE('',#71,#77,#19,.T.);
#92=EDGE_CURVE('',#77,#77,#55,.T.);
#93=EDGE_CURVE('',#78,#78,#56,.F.);
#94=EDGE_CURVE('',#78,#79,#62,.T.);
#95=EDGE_CURVE('',#79,#79,#57,.T.);
#96=EDGE_CURVE('',#80,#80,#58,.T.);
#97=EDGE_CURVE('',#80,#81,#63,.T.);
#98=EDGE_CURVE('',#81,#81,#59,.T.);
#99=ORIENTED_EDGE('',*,*,#82,.F.);
#100=ORIENTED_EDGE('',*,*,#83,.F.);
#101=ORIENTED_EDGE('',*,*,#84,.T.);
#102=ORIENTED_EDGE('',*,*,#85,.T.);
#103=ORIENTED_EDGE('',*,*,#84,.F.);
#104=ORIENTED_EDGE('',*,*,#85,.F.);
#105=ORIENTED_EDGE('',*,*,#86,.F.);
#106=ORIENTED_EDGE('',*,*,#87,.T.);
#107=ORIENTED_EDGE('',*,*,#88,.T.);
#108=ORIENTED_EDGE('',*,*,#87,.F.);
#109=ORIENTED_EDGE('',*,*,#88,.F.);
#110=ORIENTED_EDGE('',*,*,#89,.T.);
#111=ORIENTED_EDGE('',*,*,#90,.T.);
#112=ORIENTED_EDGE('',*,*,#83,.T.);
#113=ORIENTED_EDGE('',*,*,#91,.T.);
#114=ORIENTED_EDGE('',*,*,#92,.F.);
#115=ORIENTED_EDGE('',*,*,#91,.F.);
#116=ORIENTED_EDGE('',*,*,#82,.T.);
#117=ORIENTED_EDGE('',*,*,#90,.F.);
#118=ORIENTED_EDGE('',*,*,#86,.T.);
#119=ORIENTED_EDGE('',*,*,#89,.F.);
#120=ORIENTED_EDGE('',*,*,#93,.F.);
#121=ORIENTED_EDGE('',*,*,#94,.T.);
#122=ORIENTED_EDGE('',*,*,#95,.F.);
#123=ORIENTED_EDGE('',*,*,#94,.F.);
#124=ORIENTED_EDGE('',*,*,#96,.F.);
#125=ORIENTED_EDGE('',*,*,#97,.T.);
#126=ORIENTED_EDGE('',*,*,#98,.F.);
#127=ORIENTED_EDGE('',*,*,#97,.F.);
#128=ORIENTED_EDGE('',*,*,#96,.T.);
#129=ORIENTED_EDGE('',*,*,#93,.T.);
#130=ORIENTED_EDGE('',*,*,#92,.T.);
#131=ORIENTED_EDGE('',*,*,#98,.T.);
#132=ORIENTED_EDGE('',*,*,#95,.T.);
#133=CYLINDRICAL_SURFACE('',#162,1.);
#134=CYLINDRICAL_SURFACE('',#165,1.);
#135=CYLINDRICAL_SURFACE('',#171,2.117);
#136=CYLINDRICAL_SURFACE('',#174,4.);
#137=ADVANCED_FACE('',(#27),#133,.F.);
#138=ADVANCED_FACE('',(#28),#21,.T.);
#139=ADVANCED_FACE('',(#29),#134,.F.);
#140=ADVANCED_FACE('',(#30),#22,.T.);
#141=ADVANCED_FACE('',(#31,#15),#20,.T.);
#142=ADVANCED_FACE('',(#32),#23,.F.);
#143=ADVANCED_FACE('',(#33),#135,.F.);
#144=ADVANCED_FACE('',(#34),#136,.T.);
#145=ADVANCED_FACE('',(#35,#16),#24,.T.);
#146=ADVANCED_FACE('',(#36,#17),#25,.T.);
#147=ADVANCED_FACE('',(#37),#26,.T.);
#148=CLOSED_SHELL('',(#137,#138,#139,#140,#141,#142,#143,#144,#145,#146,
#147));
#149=DERIVED_UNIT_ELEMENT(#151,1.);
#150=DERIVED_UNIT_ELEMENT(#382,-3.);
#151=(
MASS_UNIT()
NAMED_UNIT(*)
SI_UNIT(.KILO.,.GRAM.)
);
#152=DERIVED_UNIT((#149,#150));
#153=MEASURE_REPRESENTATION_ITEM('density measure',
POSITIVE_RATIO_MEASURE(7850.),#152);
#154=PROPERTY_DEFINITION_REPRESENTATION(#159,#156);
#155=PROPERTY_DEFINITION_REPRESENTATION(#160,#157);
#156=REPRESENTATION('material name',(#158),#379);
#157=REPRESENTATION('density',(#153),#379);
#158=DESCRIPTIVE_REPRESENTATION_ITEM('Acier','Acier');
#159=PROPERTY_DEFINITION('material property','material name',#389);
#160=PROPERTY_DEFINITION('material property','density of part',#389);
#161=AXIS2_PLACEMENT_3D('',#222,#180,#181);
#162=AXIS2_PLACEMENT_3D('',#223,#182,#183);
#163=AXIS2_PLACEMENT_3D('',#274,#185,#186);
#164=AXIS2_PLACEMENT_3D('',#275,#187,#188);
#165=AXIS2_PLACEMENT_3D('',#276,#189,#190);
#166=AXIS2_PLACEMENT_3D('',#322,#192,#193);
#167=AXIS2_PLACEMENT_3D('',#323,#194,#195);
#168=AXIS2_PLACEMENT_3D('',#352,#196,#197);
#169=AXIS2_PLACEMENT_3D('',#360,#198,#199);
#170=AXIS2_PLACEMENT_3D('',#361,#200,#201);
#171=AXIS2_PLACEMENT_3D('',#362,#202,#203);
#172=AXIS2_PLACEMENT_3D('',#364,#204,#205);
#173=AXIS2_PLACEMENT_3D('',#367,#207,#208);
#174=AXIS2_PLACEMENT_3D('',#368,#209,#210);
#175=AXIS2_PLACEMENT_3D('',#370,#211,#212);
#176=AXIS2_PLACEMENT_3D('',#373,#214,#215);
#177=AXIS2_PLACEMENT_3D('',#374,#216,#217);
#178=AXIS2_PLACEMENT_3D('',#375,#218,#219);
#179=AXIS2_PLACEMENT_3D('',#376,#220,#221);
#180=DIRECTION('axis',(0.,0.,1.));
#181=DIRECTION('refdir',(1.,0.,0.));
#182=DIRECTION('center_axis',(0.,0.,1.));
#183=DIRECTION('ref_axis',(1.,0.,0.));
#184=DIRECTION('',(0.,0.,1.));
#185=DIRECTION('center_axis',(0.,0.,1.));
#186=DIRECTION('ref_axis',(1.,0.,0.));
#187=DIRECTION('center_axis',(0.,0.,-1.));
#188=DIRECTION('ref_axis',(1.,0.,0.));
#189=DIRECTION('center_axis',(0.,0.,1.));
#190=DIRECTION('ref_axis',(1.,0.,0.));
#191=DIRECTION('',(0.,0.,1.));
#192=DIRECTION('center_axis',(0.,0.,1.));
#193=DIRECTION('ref_axis',(1.,0.,0.));
#194=DIRECTION('center_axis',(0.,0.,-1.));
#195=DIRECTION('ref_axis',(1.,0.,0.));
#196=DIRECTION('center_axis',(0.,0.,1.));
#197=DIRECTION('ref_axis',(-1.,0.,0.));
#198=DIRECTION('center_axis',(0.,0.,1.));
#199=DIRECTION('ref_axis',(1.,0.,0.));
#200=DIRECTION('center_axis',(0.,0.,1.));
#201=DIRECTION('ref_axis',(1.,0.,0.));
#202=DIRECTION('center_axis',(0.,0.,1.));
#203=DIRECTION('ref_axis',(-1.,0.,0.));
#204=DIRECTION('center_axis',(0.,0.,1.));
#205=DIRECTION('ref_axis',(-1.,0.,0.));
#206=DIRECTION('',(0.,0.,-1.));
#207=DIRECTION('center_axis',(0.,0.,1.));
#208=DIRECTION('ref_axis',(-1.,0.,0.));
#209=DIRECTION('center_axis',(0.,0.,1.));
#210=DIRECTION('ref_axis',(-1.,0.,0.));
#211=DIRECTION('center_axis',(0.,0.,1.));
#212=DIRECTION('ref_axis',(-1.,0.,0.));
#213=DIRECTION('',(0.,0.,-1.));
#214=DIRECTION('center_axis',(0.,0.,-1.));
#215=DIRECTION('ref_axis',(-1.,0.,0.));
#216=DIRECTION('center_axis',(0.,0.,1.));
#217=DIRECTION('ref_axis',(-1.,0.,0.));
#218=DIRECTION('center_axis',(0.,0.,1.));
#219=DIRECTION('ref_axis',(1.,0.,0.));
#220=DIRECTION('center_axis',(0.,0.,1.));
#221=DIRECTION('ref_axis',(1.,0.,0.));
#222=CARTESIAN_POINT('',(0.,0.,0.));
#223=CARTESIAN_POINT('Origin',(4.5,0.,0.));
#224=CARTESIAN_POINT('',(5.5,7.63278329429795E-16,0.462281594810199));
#225=CARTESIAN_POINT('',(3.5,-6.12323399573677E-17,0.00798654771016236));
#226=CARTESIAN_POINT('Ctrl Pts',(5.5,7.63278329429795E-16,0.462281594810199));
#227=CARTESIAN_POINT('Ctrl Pts',(5.5,0.107072428231027,0.462281594810199));
#228=CARTESIAN_POINT('Ctrl Pts',(5.48281711988308,0.213097502571608,0.456380601506653));
#229=CARTESIAN_POINT('Ctrl Pts',(5.41494710050699,0.418171193652766,0.433536688822618));
#230=CARTESIAN_POINT('Ctrl Pts',(5.36393397205355,0.515086690845431,0.416504363169208));
#231=CARTESIAN_POINT('Ctrl Pts',(5.22199075318128,0.703613623880356,0.370719117476951));
#232=CARTESIAN_POINT('Ctrl Pts',(5.12672573156957,0.789412845567083,0.340824623705425));
#233=CARTESIAN_POINT('Ctrl Pts',(4.90128080017298,0.92619918455405,0.274278479304487));
#234=CARTESIAN_POINT('Ctrl Pts',(4.77036027790709,0.972519442159562,0.237785172110352));
#235=CARTESIAN_POINT('Ctrl Pts',(4.54771208638798,1.00266392103372,0.181310794598303));
#236=CARTESIAN_POINT('Ctrl Pts',(4.45979770972498,1.00304681742033,0.160327864212182));
#237=CARTESIAN_POINT('Ctrl Pts',(4.30705046427536,0.983435455584218,0.126490733151892));
#238=CARTESIAN_POINT('Ctrl Pts',(4.2422276818097,0.968497889996083,0.112982679441646));
#239=CARTESIAN_POINT('Ctrl Pts',(4.11695121492627,0.926059883398159,0.0885722043693716));
#240=CARTESIAN_POINT('Ctrl Pts',(4.05678708024084,0.898849624883931,0.0777029340590636));
#241=CARTESIAN_POINT('Ctrl Pts',(3.9240908152738,0.822148512755108,0.0555223649838986));
#242=CARTESIAN_POINT('Ctrl Pts',(3.85443824814785,0.768726981095963,0.0453029045460702));
#243=CARTESIAN_POINT('Ctrl Pts',(3.70133302755594,0.615435410176316,0.0253186969171259));
#244=CARTESIAN_POINT('Ctrl Pts',(3.62853982154605,0.507247984188441,0.0182278493812691));
#245=CARTESIAN_POINT('Ctrl Pts',(3.52731846292523,0.266797055861677,0.00958577661028421));
#246=CARTESIAN_POINT('Ctrl Pts',(3.50067527132911,0.136621837777064,0.00803139088106956));
#247=CARTESIAN_POINT('Ctrl Pts',(3.50000422491014,0.00335673394802545,0.00798682825630543));
#248=CARTESIAN_POINT('Ctrl Pts',(3.5,0.00167827498789537,0.00798654771016261));
#249=CARTESIAN_POINT('Ctrl Pts',(3.5,-1.85984204178187E-17,0.00798654771016261));
#250=CARTESIAN_POINT('Ctrl Pts',(3.5,-3.46944695195361E-17,0.00798654771016248));
#251=CARTESIAN_POINT('Ctrl Pts',(3.5,-0.118849889364193,0.00798654771016248));
#252=CARTESIAN_POINT('Ctrl Pts',(3.52119807570225,-0.236777162354405,0.00924533119320263));
#253=CARTESIAN_POINT('Ctrl Pts',(3.60109439750514,-0.45190328488805,0.0157711865786056));
#254=CARTESIAN_POINT('Ctrl Pts',(3.65654369228721,-0.548429245679866,0.0208057978928142));
#255=CARTESIAN_POINT('Ctrl Pts',(3.79008253139127,-0.711385496724037,0.0365015527422472));
#256=CARTESIAN_POINT('Ctrl Pts',(3.86471433341208,-0.778685516740171,0.0465357997003999));
#257=CARTESIAN_POINT('Ctrl Pts',(4.00554693966165,-0.871956450004507,0.0688620034990457));
#258=CARTESIAN_POINT('Ctrl Pts',(4.06687629822603,-0.903955832321414,0.0794436534204938));
#259=CARTESIAN_POINT('Ctrl Pts',(4.19092506100381,-0.95323506410275,0.102728528926011));
#260=CARTESIAN_POINT('Ctrl Pts',(4.25300645436887,-0.971145495612202,0.115202562273747));
#261=CARTESIAN_POINT('Ctrl Pts',(4.39421776481934,-0.9975541857321,0.145426117629819));
#262=CARTESIAN_POINT('Ctrl Pts',(4.4734308361361,-1.00275074297295,0.163624367392172));
#263=CARTESIAN_POINT('Ctrl Pts',(4.67143281008293,-0.992409155061339,0.211933567844459));
#264=CARTESIAN_POINT('Ctrl Pts',(4.78839536516467,-0.964876263558477,0.243075094323886));
#265=CARTESIAN_POINT('Ctrl Pts',(5.02116907699092,-0.864017446369699,0.308874148953163));
#266=CARTESIAN_POINT('Ctrl Pts',(5.1332499901835,-0.785793367875736,0.342986026758369));
#267=CARTESIAN_POINT('Ctrl Pts',(5.31470294142126,-0.593877704706552,0.400266054922219));
#268=CARTESIAN_POINT('Ctrl Pts',(5.38471336205092,-0.483963058446882,0.423450309958624));
#269=CARTESIAN_POINT('Ctrl Pts',(5.47676063755047,-0.247444290379357,0.454284077743863));
#270=CARTESIAN_POINT('Ctrl Pts',(5.5,-0.12454064847967,0.462281594810199));
#271=CARTESIAN_POINT('Ctrl Pts',(5.5,6.59194920871187E-16,0.462281594810199));
#272=CARTESIAN_POINT('',(3.5,1.22464679914735E-16,2.));
#273=CARTESIAN_POINT('',(3.5,-1.22464679914735E-16,0.));
#274=CARTESIAN_POINT('Origin',(4.5,0.,2.));
#275=CARTESIAN_POINT('Origin',(4.5,0.,2.));
#276=CARTESIAN_POINT('Origin',(-4.50000006705523,0.,0.));
#277=CARTESIAN_POINT('',(-5.50000006705523,3.46944695195361E-17,0.462281622775213));
#278=CARTESIAN_POINT('Ctrl Pts',(-5.50000006705523,3.46944695195361E-17,
0.462281622775213));
#279=CARTESIAN_POINT('Ctrl Pts',(-5.50000006705523,-0.107072428335674,0.462281622775213));
#280=CARTESIAN_POINT('Ctrl Pts',(-5.48281718690482,-0.213097502753146,0.456380629243838));
#281=CARTESIAN_POINT('Ctrl Pts',(-5.41494716740497,-0.418171194045214,0.433536715671667));
#282=CARTESIAN_POINT('Ctrl Pts',(-5.36393403883253,-0.515086691325269,0.416504389345404));
#283=CARTESIAN_POINT('Ctrl Pts',(-5.22199081966452,-0.703613624506568,0.370719141820622));
#284=CARTESIAN_POINT('Ctrl Pts',(-5.1267257978483,-0.789412846197662,0.340824646834463));
#285=CARTESIAN_POINT('Ctrl Pts',(-4.9012808660471,-0.926199185097277,0.274278499634883));
#286=CARTESIAN_POINT('Ctrl Pts',(-4.77036034352305,-0.972519442584887,0.237785190838953));
#287=CARTESIAN_POINT('Ctrl Pts',(-4.54771215241654,-1.00266392102643,0.181310810851683));
#288=CARTESIAN_POINT('Ctrl Pts',(-4.45979777639734,-1.00304681735009,0.160327879593845));
#289=CARTESIAN_POINT('Ctrl Pts',(-4.30705053171964,-0.983435455650045,0.126490746894726));
#290=CARTESIAN_POINT('Ctrl Pts',(-4.2422277493869,-0.968497890126102,0.112982692438569));
#291=CARTESIAN_POINT('Ctrl Pts',(-4.11695128242371,-0.926059883594118,0.0885722158394467));
#292=CARTESIAN_POINT('Ctrl Pts',(-4.05678714754138,-0.898849625021128,0.0777029447631843));
#293=CARTESIAN_POINT('Ctrl Pts',(-3.92409088173577,-0.822148512418263,0.0555223739219999));
#294=CARTESIAN_POINT('Ctrl Pts',(-3.85443831404069,-0.7687269802121,0.045302912543259));
#295=CARTESIAN_POINT('Ctrl Pts',(-3.70133309325314,-0.615435408404999,0.0253187029800881));
#296=CARTESIAN_POINT('Ctrl Pts',(-3.62853988747515,-0.507247982262548,0.0182278545141677));
#297=CARTESIAN_POINT('Ctrl Pts',(-3.52731852942833,-0.266797053788742,0.00958578042808227));
#298=CARTESIAN_POINT('Ctrl Pts',(-3.50067533812132,-0.136621835752777,0.00803139433641578));
#299=CARTESIAN_POINT('Ctrl Pts',(-3.49940570694089,0.115518092070057,0.00794708107829944));
#300=CARTESIAN_POINT('Ctrl Pts',(-3.52061401894131,0.235204370970503,0.0091976242697751));
#301=CARTESIAN_POINT('Ctrl Pts',(-3.60109446531533,0.451903286402207,0.0157711915118994));
#302=CARTESIAN_POINT('Ctrl Pts',(-3.65654376027948,0.548429247120738,0.0208058036042289));
#303=CARTESIAN_POINT('Ctrl Pts',(-3.79008259990619,0.711385498235252,0.0365015602809461));
#304=CARTESIAN_POINT('Ctrl Pts',(-3.86471440234631,0.778685518312661,0.0465358082652826));
#305=CARTESIAN_POINT('Ctrl Pts',(-4.00554700922925,0.87195645144061,0.0688620139584745));
#306=CARTESIAN_POINT('Ctrl Pts',(-4.06687636799965,0.903955833631777,0.0794436646879308));
#307=CARTESIAN_POINT('Ctrl Pts',(-4.19092513105058,0.953235065074452,0.102728541791045));
#308=CARTESIAN_POINT('Ctrl Pts',(-4.25300652448302,0.971145496389944,0.115202575919225));
#309=CARTESIAN_POINT('Ctrl Pts',(-4.39421783491016,0.997554186045673,0.145426133002479));
#310=CARTESIAN_POINT('Ctrl Pts',(-4.47343090612505,1.00275074304057,0.163624383704726));
#311=CARTESIAN_POINT('Ctrl Pts',(-4.67143287954544,0.992409154601015,0.211933586425938));
#312=CARTESIAN_POINT('Ctrl Pts',(-4.78839543420633,0.964876262921138,0.243075114198895));
#313=CARTESIAN_POINT('Ctrl Pts',(-5.02116914566646,0.864017445414771,0.308874171530255));
#314=CARTESIAN_POINT('Ctrl Pts',(-5.13325005888972,0.785793366592538,0.3429860507127));
#315=CARTESIAN_POINT('Ctrl Pts',(-5.31470300960331,0.593877703078129,0.400266080950409));
#316=CARTESIAN_POINT('Ctrl Pts',(-5.38471342987558,0.483963056974859,0.423450336740018));
#317=CARTESIAN_POINT('Ctrl Pts',(-5.4767607047713,0.24744428947396,0.454284105473637));
#318=CARTESIAN_POINT('Ctrl Pts',(-5.50000006705523,0.124540648037409,0.462281622775213));
#319=CARTESIAN_POINT('Ctrl Pts',(-5.50000006705523,-6.93889390390723E-17,
0.462281622775213));
#320=CARTESIAN_POINT('',(-5.50000006705523,1.22464679914735E-16,2.));
#321=CARTESIAN_POINT('',(-5.50000006705523,-1.22464679914735E-16,0.));
#322=CARTESIAN_POINT('Origin',(-4.50000006705523,0.,2.));
#323=CARTESIAN_POINT('Origin',(-4.50000006705523,0.,2.));
#324=CARTESIAN_POINT('Ctrl Pts',(9.,0.,4.5));
#325=CARTESIAN_POINT('Ctrl Pts',(9.,9.,4.5));
#326=CARTESIAN_POINT('Ctrl Pts',(0.,9.,4.5));
#327=CARTESIAN_POINT('Ctrl Pts',(-9.,9.,4.5));
#328=CARTESIAN_POINT('Ctrl Pts',(-9.,0.,4.5));
#329=CARTESIAN_POINT('Ctrl Pts',(-9.,-9.,4.5));
#330=CARTESIAN_POINT('Ctrl Pts',(0.,-9.,4.5));
#331=CARTESIAN_POINT('Ctrl Pts',(9.,-9.,4.5));
#332=CARTESIAN_POINT('Ctrl Pts',(9.,0.,4.5));
#333=CARTESIAN_POINT('Ctrl Pts',(7.83810499613777,0.,1.35264656413772E-16));
#334=CARTESIAN_POINT('Ctrl Pts',(7.83810499613777,7.83810499613777,1.35264656413772E-16));
#335=CARTESIAN_POINT('Ctrl Pts',(0.,7.83810499613777,0.));
#336=CARTESIAN_POINT('Ctrl Pts',(-7.83810499613777,7.83810499613777,-1.35264656413772E-16));
#337=CARTESIAN_POINT('Ctrl Pts',(-7.83810499613777,0.,-1.35264656413772E-16));
#338=CARTESIAN_POINT('Ctrl Pts',(-7.83810499613777,-7.83810499613777,-1.35264656413772E-16));
#339=CARTESIAN_POINT('Ctrl Pts',(0.,-7.83810499613777,0.));
#340=CARTESIAN_POINT('Ctrl Pts',(7.83810499613777,-7.83810499613777,1.35264656413772E-16));
#341=CARTESIAN_POINT('Ctrl Pts',(7.83810499613777,0.,1.35264656413772E-16));
#342=CARTESIAN_POINT('Ctrl Pts',(3.19052498068887,0.,0.));
#343=CARTESIAN_POINT('Ctrl Pts',(3.19052498068887,3.19052498068887,0.));
#344=CARTESIAN_POINT('Ctrl Pts',(0.,3.19052498068887,0.));
#345=CARTESIAN_POINT('Ctrl Pts',(-3.19052498068887,3.19052498068887,0.));
#346=CARTESIAN_POINT('Ctrl Pts',(-3.19052498068887,0.,0.));
#347=CARTESIAN_POINT('Ctrl Pts',(-3.19052498068887,-3.19052498068887,0.));
#348=CARTESIAN_POINT('Ctrl Pts',(0.,-3.19052498068887,0.));
#349=CARTESIAN_POINT('Ctrl Pts',(3.19052498068887,-3.19052498068887,0.));
#350=CARTESIAN_POINT('Ctrl Pts',(3.19052498068887,0.,0.));
#351=CARTESIAN_POINT('',(3.19052498068887,3.9072662052003E-16,0.));
#352=CARTESIAN_POINT('Origin',(0.,0.,0.));
#353=CARTESIAN_POINT('Ctrl Pts',(3.19052498068887,0.,0.));
#354=CARTESIAN_POINT('Ctrl Pts',(3.34536554381604,0.,4.50652931217748E-18));
#355=CARTESIAN_POINT('Ctrl Pts',(3.50000000001903,0.,0.00798654771114519));
#356=CARTESIAN_POINT('',(9.,1.10218211923262E-15,4.5));
#357=CARTESIAN_POINT('Ctrl Pts',(5.5,0.,0.462281594810199));
#358=CARTESIAN_POINT('Ctrl Pts',(8.25401959871988,0.,1.61083032924496));
#359=CARTESIAN_POINT('Ctrl Pts',(9.,0.,4.5));
#360=CARTESIAN_POINT('Origin',(0.,0.,4.5));
#361=CARTESIAN_POINT('Origin',(0.,0.,0.));
#362=CARTESIAN_POINT('Origin',(0.,0.,4.5));
#363=CARTESIAN_POINT('',(2.117,2.59257727379495E-16,17.5));
#364=CARTESIAN_POINT('Origin',(0.,0.,17.5));
#365=CARTESIAN_POINT('',(2.117,2.59257727379495E-16,4.5));
#366=CARTESIAN_POINT('',(2.117,2.59257727379495E-16,4.5));
#367=CARTESIAN_POINT('Origin',(0.,0.,4.5));
#368=CARTESIAN_POINT('Origin',(0.,0.,4.5));
#369=CARTESIAN_POINT('',(4.,4.89858719658941E-16,17.5));
#370=CARTESIAN_POINT('Origin',(0.,0.,17.5));
#371=CARTESIAN_POINT('',(4.,4.89858719658941E-16,4.5));
#372=CARTESIAN_POINT('',(4.,4.89858719658941E-16,4.5));
#373=CARTESIAN_POINT('Origin',(0.,0.,4.5));
#374=CARTESIAN_POINT('Origin',(0.,0.,17.5));
#375=CARTESIAN_POINT('Origin',(0.,0.,4.5));
#376=CARTESIAN_POINT('Origin',(0.,0.,4.5));
#377=UNCERTAINTY_MEASURE_WITH_UNIT(LENGTH_MEASURE(0.01),#381,
'DISTANCE_ACCURACY_VALUE',
'Maximum model space distance between geometric entities at asserted c
onnectivities');
#378=UNCERTAINTY_MEASURE_WITH_UNIT(LENGTH_MEASURE(0.01),#381,
'DISTANCE_ACCURACY_VALUE',
'Maximum model space distance between geometric entities at asserted c
onnectivities');
#379=(
GEOMETRIC_REPRESENTATION_CONTEXT(3)
GLOBAL_UNCERTAINTY_ASSIGNED_CONTEXT((#377))
GLOBAL_UNIT_ASSIGNED_CONTEXT((#381,#383,#384))
REPRESENTATION_CONTEXT('','3D')
);
#380=(
GEOMETRIC_REPRESENTATION_CONTEXT(3)
GLOBAL_UNCERTAINTY_ASSIGNED_CONTEXT((#378))
GLOBAL_UNIT_ASSIGNED_CONTEXT((#381,#383,#384))
REPRESENTATION_CONTEXT('','3D')
);
#381=(
LENGTH_UNIT()
NAMED_UNIT(*)
SI_UNIT(.MILLI.,.METRE.)
);
#382=(
LENGTH_UNIT()
NAMED_UNIT(*)
SI_UNIT($,.METRE.)
);
#383=(
NAMED_UNIT(*)
PLANE_ANGLE_UNIT()
SI_UNIT($,.RADIAN.)
);
#384=(
NAMED_UNIT(*)
SI_UNIT($,.STERADIAN.)
SOLID_ANGLE_UNIT()
);
#385=SHAPE_DEFINITION_REPRESENTATION(#386,#387);
#386=PRODUCT_DEFINITION_SHAPE('',$,#389);
#387=SHAPE_REPRESENTATION('',(#161),#379);
#388=PRODUCT_DEFINITION_CONTEXT('part definition',#393,'design');
#389=PRODUCT_DEFINITION('vis_prouve','vis_prouve v1',#390,#388);
#390=PRODUCT_DEFINITION_FORMATION('',$,#395);
#391=PRODUCT_RELATED_PRODUCT_CATEGORY('vis_prouve v1','vis_prouve v1',(#395));
#392=APPLICATION_PROTOCOL_DEFINITION('international standard',
'automotive_design',2009,#393);
#393=APPLICATION_CONTEXT(
'Core Data for Automotive Mechanical Design Process');
#394=PRODUCT_CONTEXT('part definition',#393,'mechanical');
#395=PRODUCT('vis_prouve','vis_prouve v1',$,(#394));
#396=PRESENTATION_STYLE_ASSIGNMENT((#397));
#397=SURFACE_STYLE_USAGE(.BOTH.,#398);
#398=SURFACE_SIDE_STYLE('',(#399));
#399=SURFACE_STYLE_FILL_AREA(#400);
#400=FILL_AREA_STYLE('Acier - Satin\X\E9',(#401));
#401=FILL_AREA_STYLE_COLOUR('Acier - Satin\X\E9',#402);
#402=COLOUR_RGB('Acier - Satin\X\E9',0.627450980392157,0.627450980392157,
0.627450980392157);
ENDSEC;
END-ISO-10303-21;
