ISO-10303-21;
HEADER;
FILE_DESCRIPTION(('Creo Elements/Direct Modeling STEP Export'),'2;1');
FILE_NAME(
'00012014 ROULEAU DE GALET \S\X10 LG 80 GALET ROTORA MONTAGE AVEC CAGE B
RONZE.stp','2023-08-28T16:25:35',(''),(''),
'Creo Elements/Direct Modeling STEP processor for AP214 (Solid Model)',
'Creo Elements/Direct Modeling 20.5  09-Apr-2022 (C) Parametric Technolo
gy GmbH','');
FILE_SCHEMA(('AUTOMOTIVE_DESIGN { 1 0 10303 214 1 1 1 1 }'));
ENDSEC;
DATA;
#10=CARTESIAN_POINT('',(3.67483821150927E-14,-137.5,37.));
#20=DIRECTION('',(1.11022302462516E-16,0.,-1.));
#30=DIRECTION('',(1.,0.,1.11022302462516E-16));
#40=AXIS2_PLACEMENT_3D('',#10,#20,#30);
#50=PLANE('',#40);
#60=CARTESIAN_POINT('',(3.67483821150927E-14,-134.5,37.));
#70=DIRECTION('',(-1.11022302462516E-16,0.,1.));
#80=DIRECTION('',(-1.,0.,-1.11022302462516E-16));
#90=AXIS2_PLACEMENT_3D('',#60,#70,#80);
#100=CIRCLE('',#90,2.);
#110=CARTESIAN_POINT('',(-1.99999999999996,-134.5,37.));
#120=VERTEX_POINT('',#110);
#130=CARTESIAN_POINT('',(2.00000000000004,-134.5,37.));
#140=VERTEX_POINT('',#130);
#150=EDGE_CURVE('',#120,#140,#100,.T.);
#160=ORIENTED_EDGE('',*,*,#150,.F.);
#170=EDGE_CURVE('',#140,#120,#100,.T.);
#180=ORIENTED_EDGE('',*,*,#170,.F.);
#190=EDGE_LOOP('',(#180,#160));
#200=FACE_OUTER_BOUND('',#190,.T.);
#210=ADVANCED_FACE('',(#200),#50,.T.);
#220=CARTESIAN_POINT('',(3.2307490016592E-14,-134.5,77.));
#230=DIRECTION('',(-1.11022302462516E-16,0.,1.));
#240=DIRECTION('',(-1.,0.,-1.11022302462516E-16));
#250=AXIS2_PLACEMENT_3D('',#220,#230,#240);
#260=CYLINDRICAL_SURFACE('',#250,5.);
#270=CARTESIAN_POINT('',(-4.99999999999997,-134.5,77.));
#280=DIRECTION('',(-1.11022302462516E-16,0.,1.));
#290=VECTOR('',#280,1.);
#300=LINE('',#270,#290);
#310=CARTESIAN_POINT('',(-4.99999999999996,-134.5,40.));
#320=VERTEX_POINT('',#310);
#330=CARTESIAN_POINT('',(-4.99999999999997,-134.5,114.));
#340=VERTEX_POINT('',#330);
#350=EDGE_CURVE('',#320,#340,#300,.T.);
#360=ORIENTED_EDGE('',*,*,#350,.T.);
#370=CARTESIAN_POINT('',(3.64153152077051E-14,-134.5,40.));
#380=DIRECTION('',(-1.11022302462516E-16,0.,1.));
#390=DIRECTION('',(-1.,0.,-1.11022302462516E-16));
#400=AXIS2_PLACEMENT_3D('',#370,#380,#390);
#410=CIRCLE('',#400,5.);
#420=CARTESIAN_POINT('',(5.00000000000004,-134.5,40.));
#430=VERTEX_POINT('',#420);
#440=EDGE_CURVE('',#430,#320,#410,.T.);
#450=ORIENTED_EDGE('',*,*,#440,.T.);
#460=CARTESIAN_POINT('',(5.00000000000003,-134.5,77.));
#470=DIRECTION('',(-1.11022302462516E-16,0.,1.));
#480=VECTOR('',#470,1.);
#490=LINE('',#460,#480);
#500=CARTESIAN_POINT('',(5.00000000000003,-134.5,114.));
#510=VERTEX_POINT('',#500);
#520=EDGE_CURVE('',#430,#510,#490,.T.);
#530=ORIENTED_EDGE('',*,*,#520,.F.);
#540=CARTESIAN_POINT('',(2.8199664825479E-14,-134.5,114.));
#550=DIRECTION('',(-1.11022302462516E-16,0.,1.));
#560=DIRECTION('',(-1.,0.,-1.11022302462516E-16));
#570=AXIS2_PLACEMENT_3D('',#540,#550,#560);
#580=CIRCLE('',#570,5.);
#590=EDGE_CURVE('',#510,#340,#580,.T.);
#600=ORIENTED_EDGE('',*,*,#590,.F.);
#610=EDGE_LOOP('',(#600,#530,#450,#360));
#620=FACE_OUTER_BOUND('',#610,.T.);
#630=ADVANCED_FACE('',(#620),#260,.T.);
#640=CARTESIAN_POINT('',(2.78665979180914E-14,-137.5,117.));
#650=DIRECTION('',(-1.11022302462516E-16,-0.,1.));
#660=DIRECTION('',(-1.,0.,-1.11022302462516E-16));
#670=AXIS2_PLACEMENT_3D('',#640,#650,#660);
#680=PLANE('',#670);
#690=CARTESIAN_POINT('',(2.78665979180914E-14,-134.5,117.));
#700=DIRECTION('',(-1.11022302462516E-16,0.,1.));
#710=DIRECTION('',(-1.,0.,-1.11022302462516E-16));
#720=AXIS2_PLACEMENT_3D('',#690,#700,#710);
#730=CIRCLE('',#720,2.);
#740=CARTESIAN_POINT('',(-1.99999999999997,-134.5,117.));
#750=VERTEX_POINT('',#740);
#760=CARTESIAN_POINT('',(2.00000000000003,-134.5,117.));
#770=VERTEX_POINT('',#760);
#780=EDGE_CURVE('',#750,#770,#730,.T.);
#790=ORIENTED_EDGE('',*,*,#780,.T.);
#800=EDGE_CURVE('',#770,#750,#730,.T.);
#810=ORIENTED_EDGE('',*,*,#800,.T.);
#820=EDGE_LOOP('',(#810,#790));
#830=FACE_OUTER_BOUND('',#820,.T.);
#840=ADVANCED_FACE('',(#830),#680,.T.);
#850=CARTESIAN_POINT('',(3.67483821150927E-14,-134.5,37.));
#860=DIRECTION('',(-1.11022302462516E-16,0.,1.));
#870=DIRECTION('',(-1.,0.,-1.11022302462516E-16));
#880=AXIS2_PLACEMENT_3D('',#850,#860,#870);
#890=CONICAL_SURFACE('',#880,2.,0.785398163397448);
#900=CARTESIAN_POINT('',(2.00000000000004,-134.5,37.));
#910=DIRECTION('',(0.707106781186548,0.,0.707106781186548));
#920=VECTOR('',#910,2.82842712474619);
#930=LINE('',#900,#920);
#940=EDGE_CURVE('',#140,#430,#930,.T.);
#950=ORIENTED_EDGE('',*,*,#940,.F.);
#960=ORIENTED_EDGE('',*,*,#440,.F.);
#970=CARTESIAN_POINT('',(-1.99999999999996,-134.5,37.));
#980=DIRECTION('',(-0.707106781186548,0.,0.707106781186548));
#990=VECTOR('',#980,2.82842712474619);
#1000=LINE('',#970,#990);
#1010=EDGE_CURVE('',#120,#320,#1000,.T.);
#1020=ORIENTED_EDGE('',*,*,#1010,.T.);
#1030=ORIENTED_EDGE('',*,*,#170,.T.);
#1040=EDGE_LOOP('',(#1030,#1020,#960,#950));
#1050=FACE_OUTER_BOUND('',#1040,.T.);
#1060=ADVANCED_FACE('',(#1050),#890,.T.);
#1070=CARTESIAN_POINT('',(2.8199664825479E-14,-134.5,114.));
#1080=DIRECTION('',(1.11022302462516E-16,0.,-1.));
#1090=DIRECTION('',(1.,0.,1.11022302462516E-16));
#1100=AXIS2_PLACEMENT_3D('',#1070,#1080,#1090);
#1110=CONICAL_SURFACE('',#1100,5.,0.785398163397448);
#1120=CARTESIAN_POINT('',(5.00000000000003,-134.5,114.));
#1130=DIRECTION('',(0.707106781186548,0.,-0.707106781186547));
#1140=VECTOR('',#1130,7.07106781186548);
#1150=LINE('',#1120,#1140);
#1160=EDGE_CURVE('',#770,#510,#1150,.T.);
#1170=ORIENTED_EDGE('',*,*,#1160,.T.);
#1180=ORIENTED_EDGE('',*,*,#800,.F.);
#1190=CARTESIAN_POINT('',(-4.99999999999997,-134.5,114.));
#1200=DIRECTION('',(-0.707106781186547,0.,-0.707106781186548));
#1210=VECTOR('',#1200,7.07106781186547);
#1220=LINE('',#1190,#1210);
#1230=EDGE_CURVE('',#750,#340,#1220,.T.);
#1240=ORIENTED_EDGE('',*,*,#1230,.F.);
#1250=ORIENTED_EDGE('',*,*,#590,.T.);
#1260=EDGE_LOOP('',(#1250,#1240,#1180,#1170));
#1270=FACE_OUTER_BOUND('',#1260,.T.);
#1280=ADVANCED_FACE('',(#1270),#1110,.T.);
#1290=CARTESIAN_POINT('',(3.67483821150927E-14,-134.5,37.));
#1300=DIRECTION('',(-1.11022302462516E-16,0.,1.));
#1310=DIRECTION('',(-1.,0.,-1.11022302462516E-16));
#1320=AXIS2_PLACEMENT_3D('',#1290,#1300,#1310);
#1330=CONICAL_SURFACE('',#1320,2.,0.785398163397448);
#1340=EDGE_CURVE('',#320,#430,#410,.T.);
#1350=ORIENTED_EDGE('',*,*,#1340,.F.);
#1360=ORIENTED_EDGE('',*,*,#940,.T.);
#1370=ORIENTED_EDGE('',*,*,#150,.T.);
#1380=ORIENTED_EDGE('',*,*,#1010,.F.);
#1390=EDGE_LOOP('',(#1380,#1370,#1360,#1350));
#1400=FACE_OUTER_BOUND('',#1390,.T.);
#1410=ADVANCED_FACE('',(#1400),#1330,.T.);
#1420=CARTESIAN_POINT('',(2.8199664825479E-14,-134.5,114.));
#1430=DIRECTION('',(1.11022302462516E-16,0.,-1.));
#1440=DIRECTION('',(1.,0.,1.11022302462516E-16));
#1450=AXIS2_PLACEMENT_3D('',#1420,#1430,#1440);
#1460=CONICAL_SURFACE('',#1450,5.,0.785398163397448);
#1470=EDGE_CURVE('',#340,#510,#580,.T.);
#1480=ORIENTED_EDGE('',*,*,#1470,.T.);
#1490=ORIENTED_EDGE('',*,*,#1230,.T.);
#1500=ORIENTED_EDGE('',*,*,#780,.F.);
#1510=ORIENTED_EDGE('',*,*,#1160,.F.);
#1520=EDGE_LOOP('',(#1510,#1500,#1490,#1480));
#1530=FACE_OUTER_BOUND('',#1520,.T.);
#1540=ADVANCED_FACE('',(#1530),#1460,.T.);
#1550=CARTESIAN_POINT('',(3.2307490016592E-14,-134.5,77.));
#1560=DIRECTION('',(-1.11022302462516E-16,0.,1.));
#1570=DIRECTION('',(-1.,0.,-1.11022302462516E-16));
#1580=AXIS2_PLACEMENT_3D('',#1550,#1560,#1570);
#1590=CYLINDRICAL_SURFACE('',#1580,5.);
#1600=ORIENTED_EDGE('',*,*,#1470,.F.);
#1610=ORIENTED_EDGE('',*,*,#520,.T.);
#1620=ORIENTED_EDGE('',*,*,#1340,.T.);
#1630=ORIENTED_EDGE('',*,*,#350,.F.);
#1640=EDGE_LOOP('',(#1630,#1620,#1610,#1600));
#1650=FACE_OUTER_BOUND('',#1640,.T.);
#1660=ADVANCED_FACE('',(#1650),#1590,.T.);
#1670=CLOSED_SHELL('',(#210,#630,#840,#1060,#1280,#1410,#1540,#1660));
#1680=MANIFOLD_SOLID_BREP('',#1670);
#1690=CARTESIAN_POINT('',(0.,0.,0.));
#1700=DIRECTION('',(0.,0.,1.));
#1710=DIRECTION('',(1.,0.,0.));
#1720=AXIS2_PLACEMENT_3D('',#1690,#1700,#1710);
#1730=APPLICATION_CONTEXT(' ');
#1740=APPLICATION_PROTOCOL_DEFINITION(' ','automotive_design',1998,#1730
);
#1750=PRODUCT_CONTEXT('',#1730,'mechanical');
#1760=PRODUCT_DEFINITION_CONTEXT('part definition',#1730,'design');
#1770=PRODUCT(
'00012014 ROULEAU DE GALET \S\X10 LG 80 GALET ROTORA MONTAGE AVEC CAGE B
RONZE',
'00012014 ROULEAU DE GALET \S\X10 LG 80 GALET ROTORA MONTAGE AVEC CAGE B
RONZE','',(#1750));
#1780=PRODUCT_RELATED_PRODUCT_CATEGORY('part',' ',(#1770));
#1790=PRODUCT_DEFINITION_FORMATION_WITH_SPECIFIED_SOURCE('','',#1770,
.BOUGHT.);
#1800=PRODUCT_DEFINITION('',' ',#1790,#1760);
#1810=PRODUCT_DEFINITION_SHAPE('','',#1800);
#1820=DIMENSIONAL_EXPONENTS(1.,0.,0.,0.,0.,0.,0.);
#1830=DIMENSIONAL_EXPONENTS(0.,0.,0.,0.,0.,0.,0.);
#1840=DIMENSIONAL_EXPONENTS(0.,0.,0.,0.,0.,0.,0.);
#1850=(LENGTH_UNIT() NAMED_UNIT(*) SI_UNIT(.MILLI.,.METRE.));
#1860=(NAMED_UNIT(*) PLANE_ANGLE_UNIT() SI_UNIT($,.RADIAN.));
#1870=(NAMED_UNIT(*) SI_UNIT($,.STERADIAN.) SOLID_ANGLE_UNIT());
#1880=(GEOMETRIC_REPRESENTATION_CONTEXT(3) 
GLOBAL_UNCERTAINTY_ASSIGNED_CONTEXT((#1890)) 
GLOBAL_UNIT_ASSIGNED_CONTEXT((#1850,#1860,#1870)) REPRESENTATION_CONTEXT
('',''));
#1890=UNCERTAINTY_MEASURE_WITH_UNIT(LENGTH_MEASURE(1.E-6),#1850,
'distance_accuracy_value','maximum gap value');
#1900=ADVANCED_BREP_SHAPE_REPRESENTATION('',(#1720,#1680),#1880);
#1910=SHAPE_DEFINITION_REPRESENTATION(#1810,#1900);
#1920=COLOUR_RGB('',0.678431391716003,0.666666686534882,
0.662745118141174);
#1930=FILL_AREA_STYLE_COLOUR('',#1920);
#1940=FILL_AREA_STYLE('',(#1930));
#1950=SURFACE_STYLE_FILL_AREA(#1940);
#1960=SURFACE_SIDE_STYLE('',(#1950));
#1970=SURFACE_STYLE_USAGE(.BOTH.,#1960);
#1980=PRESENTATION_STYLE_ASSIGNMENT((#1970));
#1990=STYLED_ITEM('',(#1980),#1680);
#2000=DRAUGHTING_MODEL('',(#1990),#1880);
ENDSEC;
END-ISO-10303-21;
