ISO-10303-21;
HEADER;
FILE_DESCRIPTION (( 'STEP AP214' ),
    '1' );
FILE_NAME ('ART_Butee_5.STEP',
    '2023-04-12T09:12:04',
    ( '' ),
    ( '' ),
    'SwSTEP 2.0',
    'SolidWorks 2023',
    '' );
FILE_SCHEMA (( 'AUTOMOTIVE_DESIGN' ));
ENDSEC;

DATA;
#1 = CARTESIAN_POINT ( 'NONE',  ( 0.000000000000000000, 3.000000000000000000, 4.000000000000000000 ) ) ;
#2 = ORIENTED_EDGE ( 'NONE', *, *, #212, .T. ) ;
#3 = AXIS2_PLACEMENT_3D ( 'NONE', #195, #318, #381 ) ;
#4 = VERTEX_POINT ( 'NONE', #113 ) ;
#5 = EDGE_LOOP ( 'NONE', ( #373, #371 ) ) ;
#6 = DIRECTION ( 'NONE',  ( 1.000000000000000000, -0.000000000000000000, -0.000000000000000000 ) ) ;
#7 = DIRECTION ( 'NONE',  ( 0.000000000000000000, -1.000000000000000000, 0.000000000000000000 ) ) ;
#8 = CARTESIAN_POINT ( 'NONE',  ( 1.365481181049296074E-15, 3.000000000000000000, -4.000000000000000000 ) ) ;
#9 = EDGE_LOOP ( 'NONE', ( #305, #191, #128, #107 ) ) ;
#10 = CIRCLE ( 'NONE', #280, 1.549999999999999378 ) ;
#11 = ADVANCED_FACE ( 'NONE', ( #141 ), #196, .F. ) ;
#12 = CARTESIAN_POINT ( 'NONE',  ( -1.999999999999998668, -6.292939339444798108, 7.500000000000000000 ) ) ;
#13 = APPLICATION_CONTEXT ( 'automotive_design' ) ;
#14 = DIRECTION ( 'NONE',  ( 1.000000000000000000, -0.000000000000000000, -0.000000000000000000 ) ) ;
#15 = UNCERTAINTY_MEASURE_WITH_UNIT (LENGTH_MEASURE( 1.000000000000000082E-05 ), #348, 'distance_accuracy_value', 'NONE');
#16 = DIRECTION ( 'NONE',  ( 0.000000000000000000, 1.000000000000000000, 0.000000000000000000 ) ) ;
#17 = ADVANCED_FACE ( 'NONE', ( #37 ), #133, .F. ) ;
#18 = AXIS2_PLACEMENT_3D ( 'NONE', #148, #370, #67 ) ;
#19 = DIRECTION ( 'NONE',  ( 1.000000000000000000, 0.000000000000000000, 0.000000000000000000 ) ) ;
#20 = CARTESIAN_POINT ( 'NONE',  ( 7.206238122767249621, -1.999999999999999556, 7.500000000000000000 ) ) ;
#21 = CARTESIAN_POINT ( 'NONE',  ( 0.000000000000000000, 6.000000000000000000, -7.500000000000000000 ) ) ;
#22 = DIRECTION ( 'NONE',  ( 1.000000000000000000, -0.000000000000000000, -0.000000000000000000 ) ) ;
#23 = AXIS2_PLACEMENT_3D ( 'NONE', #216, #396, #364 ) ;
#24 = EDGE_CURVE ( 'NONE', #395, #337, #255, .T. ) ;
#25 = DIRECTION ( 'NONE',  ( 0.000000000000000000, 0.000000000000000000, -1.000000000000000000 ) ) ;
#26 = FACE_OUTER_BOUND ( 'NONE', #215, .T. ) ;
#27 = ORIENTED_EDGE ( 'NONE', *, *, #286, .F. ) ;
#28 = CARTESIAN_POINT ( 'NONE',  ( 0.000000000000000000, 0.000000000000000000, 7.500000000000000000 ) ) ;
#29 = ADVANCED_FACE ( 'NONE', ( #322 ), #79, .F. ) ;
#30 = CIRCLE ( 'NONE', #56, 1.549999999999987166 ) ;
#31 = DIRECTION ( 'NONE',  ( 1.000000000000000000, -0.000000000000000000, -0.000000000000000000 ) ) ;
#32 = ORIENTED_EDGE ( 'NONE', *, *, #278, .T. ) ;
#33 = LINE ( 'NONE', #383, #108 ) ;
#34 = ORIENTED_EDGE ( 'NONE', *, *, #389, .F. ) ;
#35 = EDGE_CURVE ( 'NONE', #233, #376, #303, .T. ) ;
#36 =( NAMED_UNIT ( * ) SI_UNIT ( $, .STERADIAN. ) SOLID_ANGLE_UNIT ( ) );
#37 = FACE_OUTER_BOUND ( 'NONE', #93, .T. ) ;
#38 = CARTESIAN_POINT ( 'NONE',  ( -1.999999999999998668, -6.292939339444798108, 7.500000000000000000 ) ) ;
#39 = AXIS2_PLACEMENT_3D ( 'NONE', #8, #71, #258 ) ;
#40 = EDGE_CURVE ( 'NONE', #164, #313, #240, .T. ) ;
#41 = ORIENTED_EDGE ( 'NONE', *, *, #199, .T. ) ;
#42 = LINE ( 'NONE', #294, #208 ) ;
#43 = DIRECTION ( 'NONE',  ( 1.000000000000000000, -0.000000000000000000, -0.000000000000000000 ) ) ;
#44 = CARTESIAN_POINT ( 'NONE',  ( 1.365481181049296074E-15, 3.000000000000000000, -2.450000000000013056 ) ) ;
#45 = ORIENTED_EDGE ( 'NONE', *, *, #357, .F. ) ;
#46 = ADVANCED_FACE ( 'NONE', ( #329 ), #391, .F. ) ;
#47 = APPLICATION_PROTOCOL_DEFINITION ( 'draft international standard', 'automotive_design', 1998, #54 ) ;
#48 = ORIENTED_EDGE ( 'NONE', *, *, #323, .F. ) ;
#49 = CIRCLE ( 'NONE', #288, 1.549999999999999378 ) ;
#50 = PRODUCT_DEFINITION_CONTEXT ( 'detailed design', #54, 'design' ) ;
#51 = CARTESIAN_POINT ( 'NONE',  ( 0.000000000000000000, 6.000000000000000000, -7.500000000000000000 ) ) ;
#52 = EDGE_CURVE ( 'NONE', #135, #376, #331, .T. ) ;
#53 = DIRECTION ( 'NONE',  ( 1.000000000000000000, -0.000000000000000000, -0.000000000000000000 ) ) ;
#54 = APPLICATION_CONTEXT ( 'automotive_design' ) ;
#55 = CARTESIAN_POINT ( 'NONE',  ( 7.206238122767249621, 1.664663448792825174E-15, 7.500000000000000000 ) ) ;
#56 = AXIS2_PLACEMENT_3D ( 'NONE', #264, #74, #166 ) ;
#57 =( GEOMETRIC_REPRESENTATION_CONTEXT ( 3 ) GLOBAL_UNCERTAINTY_ASSIGNED_CONTEXT ( ( #15 ) ) GLOBAL_UNIT_ASSIGNED_CONTEXT ( ( #348, #102, #36 ) ) REPRESENTATION_CONTEXT ( 'NONE', 'WORKASPACE' ) );
#58 = DIRECTION ( 'NONE',  ( 0.000000000000000000, 0.000000000000000000, -1.000000000000000000 ) ) ;
#59 = CARTESIAN_POINT ( 'NONE',  ( 1.365481181049296074E-15, 3.000000000000000000, 2.450000000000013056 ) ) ;
#60 = LINE ( 'NONE', #306, #249 ) ;
#61 = EDGE_LOOP ( 'NONE', ( #136, #368, #159, #41 ) ) ;
#62 = AXIS2_PLACEMENT_3D ( 'NONE', #210, #92, #276 ) ;
#63 = CARTESIAN_POINT ( 'NONE',  ( 0.000000000000000000, 0.000000000000000000, -7.500000000000000000 ) ) ;
#64 = ORIENTED_EDGE ( 'NONE', *, *, #169, .T. ) ;
#65 = CARTESIAN_POINT ( 'NONE',  ( 0.000000000000000000, 6.000000000000000000, 7.500000000000000000 ) ) ;
#66 = ORIENTED_EDGE ( 'NONE', *, *, #286, .T. ) ;
#67 = DIRECTION ( 'NONE',  ( -1.058365758633415754E-16, 1.000000000000000000, 0.000000000000000000 ) ) ;
#68 = ORIENTED_EDGE ( 'NONE', *, *, #350, .F. ) ;
#69 = VECTOR ( 'NONE', #394, 1000.000000000000000 ) ;
#70 = PRODUCT_DEFINITION_FORMATION_WITH_SPECIFIED_SOURCE ( 'ANY', '', #203, .NOT_KNOWN. ) ;
#71 = DIRECTION ( 'NONE',  ( 1.000000000000000000, -0.000000000000000000, -0.000000000000000000 ) ) ;
#72 = EDGE_LOOP ( 'NONE', ( #48, #354, #91, #154, #183, #167 ) ) ;
#73 = VERTEX_POINT ( 'NONE', #266 ) ;
#74 = DIRECTION ( 'NONE',  ( 1.000000000000000000, -0.000000000000000000, -0.000000000000000000 ) ) ;
#75 = ORIENTED_EDGE ( 'NONE', *, *, #212, .F. ) ;
#76 = CIRCLE ( 'NONE', #39, 1.549999999999987166 ) ;
#77 = DIRECTION ( 'NONE',  ( -0.000000000000000000, -0.000000000000000000, -1.000000000000000000 ) ) ;
#78 = AXIS2_PLACEMENT_3D ( 'NONE', #221, #343, #279 ) ;
#79 = PLANE ( 'NONE',  #362 ) ;
#80 = CARTESIAN_POINT ( 'NONE',  ( -2.000000000000000000, 3.000000000000000000, -4.000000000000000000 ) ) ;
#81 = ORIENTED_EDGE ( 'NONE', *, *, #169, .F. ) ;
#82 = ORIENTED_EDGE ( 'NONE', *, *, #35, .F. ) ;
#83 = LINE ( 'NONE', #359, #117 ) ;
#84 = PRESENTATION_LAYER_ASSIGNMENT (  '', '', ( #330 ) ) ;
#85 = CARTESIAN_POINT ( 'NONE',  ( -2.000000000000000000, 3.000000000000000000, -2.450000000000000622 ) ) ;
#86 = DIRECTION ( 'NONE',  ( -0.000000000000000000, -0.000000000000000000, -1.000000000000000000 ) ) ;
#87 = VECTOR ( 'NONE', #96, 1000.000000000000000 ) ;
#88 = CARTESIAN_POINT ( 'NONE',  ( -2.000000000000000000, 3.000000000000000000, 4.000000000000000000 ) ) ;
#89 = EDGE_CURVE ( 'NONE', #231, #164, #242, .T. ) ;
#90 = CARTESIAN_POINT ( 'NONE',  ( 0.000000000000000000, 3.000000000000000000, -5.549999999999993605 ) ) ;
#91 = ORIENTED_EDGE ( 'NONE', *, *, #297, .F. ) ;
#92 = DIRECTION ( 'NONE',  ( -0.4226182617406938902, 0.9063077870366526012, 0.000000000000000000 ) ) ;
#93 = EDGE_LOOP ( 'NONE', ( #217, #97, #2, #349 ) ) ;
#94 = MECHANICAL_DESIGN_GEOMETRIC_PRESENTATION_REPRESENTATION (  '', ( #330 ), #101 ) ;
#95 = EDGE_CURVE ( 'NONE', #181, #395, #145, .T. ) ;
#96 = DIRECTION ( 'NONE',  ( 0.000000000000000000, 1.000000000000000000, 0.000000000000000000 ) ) ;
#97 = ORIENTED_EDGE ( 'NONE', *, *, #137, .F. ) ;
#98 = DIRECTION ( 'NONE',  ( 0.000000000000000000, 1.000000000000000000, 0.000000000000000000 ) ) ;
#99 = PLANE ( 'NONE',  #392 ) ;
#100 = ORIENTED_EDGE ( 'NONE', *, *, #307, .F. ) ;
#101 =( GEOMETRIC_REPRESENTATION_CONTEXT ( 3 ) GLOBAL_UNCERTAINTY_ASSIGNED_CONTEXT ( ( #328 ) ) GLOBAL_UNIT_ASSIGNED_CONTEXT ( ( #201, #116, #202 ) ) REPRESENTATION_CONTEXT ( 'NONE', 'WORKASPACE' ) );
#102 =( NAMED_UNIT ( * ) PLANE_ANGLE_UNIT ( ) SI_UNIT ( $, .RADIAN. ) );
#103 = ORIENTED_EDGE ( 'NONE', *, *, #95, .T. ) ;
#104 = ADVANCED_FACE ( 'NONE', ( #387 ), #269, .F. ) ;
#105 = CARTESIAN_POINT ( 'NONE',  ( 0.000000000000000000, 0.000000000000000000, 0.000000000000000000 ) ) ;
#106 = CARTESIAN_POINT ( 'NONE',  ( 0.000000000000000000, 3.000000000000000000, 5.549999999999993605 ) ) ;
#107 = ORIENTED_EDGE ( 'NONE', *, *, #143, .T. ) ;
#108 = VECTOR ( 'NONE', #163, 999.9999999999998863 ) ;
#109 = DIRECTION ( 'NONE',  ( 0.000000000000000000, 0.000000000000000000, -1.000000000000000000 ) ) ;
#110 = VECTOR ( 'NONE', #289, 1000.000000000000000 ) ;
#111 = VERTEX_POINT ( 'NONE', #21 ) ;
#112 = CYLINDRICAL_SURFACE ( 'NONE', #262, 1.549999999999993161 ) ;
#113 = CARTESIAN_POINT ( 'NONE',  ( 7.206238122767249621, 1.664663448792825174E-15, -7.500000000000000000 ) ) ;
#114 = DIRECTION ( 'NONE',  ( 2.310031143064117865E-16, -1.000000000000000000, 0.000000000000000000 ) ) ;
#115 = EDGE_CURVE ( 'NONE', #244, #111, #83, .T. ) ;
#116 =( NAMED_UNIT ( * ) PLANE_ANGLE_UNIT ( ) SI_UNIT ( $, .RADIAN. ) );
#117 = VECTOR ( 'NONE', #16, 1000.000000000000000 ) ;
#118 = LINE ( 'NONE', #55, #194 ) ;
#119 = CARTESIAN_POINT ( 'NONE',  ( 0.000000000000000000, 6.000000000000000000, 7.500000000000000000 ) ) ;
#120 = EDGE_CURVE ( 'NONE', #111, #247, #147, .T. ) ;
#121 = DIRECTION ( 'NONE',  ( 0.000000000000000000, 0.000000000000000000, -1.000000000000000000 ) ) ;
#122 = CARTESIAN_POINT ( 'NONE',  ( -1.999999999999998668, -6.292939339444798108, 7.500000000000000000 ) ) ;
#123 = LINE ( 'NONE', #246, #87 ) ;
#124 = VERTEX_POINT ( 'NONE', #59 ) ;
#125 = DIRECTION ( 'NONE',  ( -1.000000000000000000, 0.000000000000000000, 0.000000000000000000 ) ) ;
#126 = VECTOR ( 'NONE', #314, 1000.000000000000000 ) ;
#127 = FACE_OUTER_BOUND ( 'NONE', #61, .T. ) ;
#128 = ORIENTED_EDGE ( 'NONE', *, *, #204, .F. ) ;
#129 = MANIFOLD_SOLID_BREP ( 'Dégagement M2.51', #256 ) ;
#130 = LINE ( 'NONE', #393, #398 ) ;
#131 = EDGE_LOOP ( 'NONE', ( #290, #228, #287, #179 ) ) ;
#132 = LINE ( 'NONE', #38, #272 ) ;
#133 = CYLINDRICAL_SURFACE ( 'NONE', #388, 1.549999999999993161 ) ;
#134 = AXIS2_PLACEMENT_3D ( 'NONE', #80, #260, #190 ) ;
#135 = VERTEX_POINT ( 'NONE', #85 ) ;
#136 = ORIENTED_EDGE ( 'NONE', *, *, #115, .T. ) ;
#137 = EDGE_CURVE ( 'NONE', #198, #135, #10, .T. ) ;
#138 = CARTESIAN_POINT ( 'NONE',  ( -1.999999999999998668, -6.292939339444798108, -7.500000000000000000 ) ) ;
#139 = DIRECTION ( 'NONE',  ( 0.000000000000000000, -0.000000000000000000, -1.000000000000000000 ) ) ;
#140 = DIRECTION ( 'NONE',  ( -1.000000000000000000, -2.310031143064117865E-16, 0.000000000000000000 ) ) ;
#141 = FACE_OUTER_BOUND ( 'NONE', #193, .T. ) ;
#142 = SURFACE_STYLE_USAGE ( .BOTH. , #238 ) ;
#143 = EDGE_CURVE ( 'NONE', #313, #4, #118, .T. ) ;
#144 = PRESENTATION_STYLE_ASSIGNMENT (( #142 ) ) ;
#145 = CIRCLE ( 'NONE', #149, 1.549999999999999378 ) ;
#146 = CARTESIAN_POINT ( 'NONE',  ( 0.000000000000000000, 3.000000000000000000, -4.000000000000000000 ) ) ;
#147 = LINE ( 'NONE', #51, #171 ) ;
#148 = CARTESIAN_POINT ( 'NONE',  ( -2.000000000000000000, 6.000000000000000000, 7.500000000000000000 ) ) ;
#149 = AXIS2_PLACEMENT_3D ( 'NONE', #88, #209, #58 ) ;
#150 = CARTESIAN_POINT ( 'NONE',  ( 1.365481181049296074E-15, 3.000000000000000000, -5.549999999999987388 ) ) ;
#151 = PLANE ( 'NONE',  #200 ) ;
#152 = ORIENTED_EDGE ( 'NONE', *, *, #40, .T. ) ;
#153 = PLANE ( 'NONE',  #23 ) ;
#154 = ORIENTED_EDGE ( 'NONE', *, *, #400, .F. ) ;
#155 = AXIS2_PLACEMENT_3D ( 'NONE', #146, #53, #121 ) ;
#156 = FACE_OUTER_BOUND ( 'NONE', #72, .T. ) ;
#157 = EDGE_CURVE ( 'NONE', #284, #111, #172, .T. ) ;
#158 = FACE_OUTER_BOUND ( 'NONE', #250, .T. ) ;
#159 = ORIENTED_EDGE ( 'NONE', *, *, #278, .F. ) ;
#160 = CARTESIAN_POINT ( 'NONE',  ( -2.000000000000000000, 3.000000000000000000, 5.549999999999998934 ) ) ;
#161 = EDGE_LOOP ( 'NONE', ( #68, #197, #356, #75 ) ) ;
#162 = AXIS2_PLACEMENT_3D ( 'NONE', #271, #235, #174 ) ;
#163 = DIRECTION ( 'NONE',  ( 0.9063077870366526012, 0.4226182617406938902, 0.000000000000000000 ) ) ;
#164 = VERTEX_POINT ( 'NONE', #20 ) ;
#165 = CARTESIAN_POINT ( 'NONE',  ( 0.000000000000000000, 6.000000000000000000, 7.500000000000000000 ) ) ;
#166 = DIRECTION ( 'NONE',  ( 0.000000000000000000, 0.000000000000000000, -1.000000000000000000 ) ) ;
#167 = ORIENTED_EDGE ( 'NONE', *, *, #115, .F. ) ;
#168 = DIRECTION ( 'NONE',  ( 0.000000000000000000, 0.000000000000000000, 1.000000000000000000 ) ) ;
#169 = EDGE_CURVE ( 'NONE', #284, #185, #270, .T. ) ;
#170 = FILL_AREA_STYLE ('',( #361 ) ) ;
#171 = VECTOR ( 'NONE', #333, 1000.000000000000000 ) ;
#172 = LINE ( 'NONE', #119, #241 ) ;
#173 = ADVANCED_FACE ( 'NONE', ( #175, #304, #26 ), #243, .F. ) ;
#174 = DIRECTION ( 'NONE',  ( 0.000000000000000000, 0.000000000000000000, -1.000000000000000000 ) ) ;
#175 = FACE_BOUND ( 'NONE', #211, .T. ) ;
#176 = EDGE_CURVE ( 'NONE', #185, #247, #130, .T. ) ;
#177 = FACE_OUTER_BOUND ( 'NONE', #325, .T. ) ;
#178 = CIRCLE ( 'NONE', #3, 1.549999999999987166 ) ;
#179 = ORIENTED_EDGE ( 'NONE', *, *, #360, .T. ) ;
#180 = DIRECTION ( 'NONE',  ( -1.000000000000000000, 0.000000000000000000, 0.000000000000000000 ) ) ;
#181 = VERTEX_POINT ( 'NONE', #302 ) ;
#182 = CARTESIAN_POINT ( 'NONE',  ( -2.000000000000000000, 6.000000000000000000, -7.500000000000000000 ) ) ;
#183 = ORIENTED_EDGE ( 'NONE', *, *, #120, .F. ) ;
#184 = DIRECTION ( 'NONE',  ( -0.000000000000000000, -0.000000000000000000, -1.000000000000000000 ) ) ;
#185 = VERTEX_POINT ( 'NONE', #248 ) ;
#186 = VECTOR ( 'NONE', #298, 1000.000000000000000 ) ;
#187 = AXIS2_PLACEMENT_3D ( 'NONE', #105, #226, #19 ) ;
#188 = CARTESIAN_POINT ( 'NONE',  ( 0.000000000000000000, 3.000000000000000000, 2.450000000000006839 ) ) ;
#189 = EDGE_LOOP ( 'NONE', ( #82, #100 ) ) ;
#190 = DIRECTION ( 'NONE',  ( 0.000000000000000000, 0.000000000000000000, -1.000000000000000000 ) ) ;
#191 = ORIENTED_EDGE ( 'NONE', *, *, #199, .F. ) ;
#192 = CARTESIAN_POINT ( 'NONE',  ( 7.206238122767249621, -1.999999999999999556, -7.500000000000000000 ) ) ;
#193 = EDGE_LOOP ( 'NONE', ( #315, #345, #342, #365 ) ) ;
#194 = VECTOR ( 'NONE', #86, 1000.000000000000000 ) ;
#195 = CARTESIAN_POINT ( 'NONE',  ( 1.365481181049296074E-15, 3.000000000000000000, 4.000000000000000000 ) ) ;
#196 = PLANE ( 'NONE',  #299 ) ;
#197 = ORIENTED_EDGE ( 'NONE', *, *, #52, .T. ) ;
#198 = VERTEX_POINT ( 'NONE', #252 ) ;
#199 = EDGE_CURVE ( 'NONE', #73, #244, #334, .T. ) ;
#200 = AXIS2_PLACEMENT_3D ( 'NONE', #336, #25, #367 ) ;
#201 =( LENGTH_UNIT ( ) NAMED_UNIT ( * ) SI_UNIT ( .MILLI., .METRE. ) );
#202 =( NAMED_UNIT ( * ) SI_UNIT ( $, .STERADIAN. ) SOLID_ANGLE_UNIT ( ) );
#203 = PRODUCT ( 'ART_Butee_5', 'ART_Butee_5', '', ( #355 ) ) ;
#204 = EDGE_CURVE ( 'NONE', #313, #73, #60, .T. ) ;
#205 = CARTESIAN_POINT ( 'NONE',  ( -2.000000000000000000, 3.000000000000000000, -4.000000000000000000 ) ) ;
#206 = VECTOR ( 'NONE', #232, 1000.000000000000000 ) ;
#207 = DIRECTION ( 'NONE',  ( 1.000000000000000000, -0.000000000000000000, -0.000000000000000000 ) ) ;
#208 = VECTOR ( 'NONE', #283, 1000.000000000000000 ) ;
#209 = DIRECTION ( 'NONE',  ( 1.000000000000000000, -0.000000000000000000, -0.000000000000000000 ) ) ;
#210 = CARTESIAN_POINT ( 'NONE',  ( -1.999999999999998668, -6.292939339444798108, 7.500000000000000000 ) ) ;
#211 = EDGE_LOOP ( 'NONE', ( #103, #66 ) ) ;
#212 = EDGE_CURVE ( 'NONE', #198, #233, #311, .T. ) ;
#213 = FACE_BOUND ( 'NONE', #220, .T. ) ;
#214 = VECTOR ( 'NONE', #363, 999.9999999999998863 ) ;
#215 = EDGE_LOOP ( 'NONE', ( #308, #45, #275, #379 ) ) ;
#216 = CARTESIAN_POINT ( 'NONE',  ( 0.000000000000000000, 0.000000000000000000, 7.500000000000000000 ) ) ;
#217 = ORIENTED_EDGE ( 'NONE', *, *, #52, .F. ) ;
#218 = CARTESIAN_POINT ( 'NONE',  ( 0.000000000000000000, 6.000000000000000000, 7.500000000000000000 ) ) ;
#219 = EDGE_CURVE ( 'NONE', #310, #4, #123, .T. ) ;
#220 = EDGE_LOOP ( 'NONE', ( #253, #259 ) ) ;
#221 = CARTESIAN_POINT ( 'NONE',  ( 0.000000000000000000, 3.000000000000000000, 4.000000000000000000 ) ) ;
#222 = ORIENTED_EDGE ( 'NONE', *, *, #24, .T. ) ;
#223 = CARTESIAN_POINT ( 'NONE',  ( 1.365481181049296074E-15, 3.000000000000000000, 5.549999999999987388 ) ) ;
#224 = EDGE_LOOP ( 'NONE', ( #265, #34, #347, #277 ) ) ;
#225 = ADVANCED_FACE ( 'NONE', ( #177 ), #151, .F. ) ;
#226 = DIRECTION ( 'NONE',  ( 0.000000000000000000, 0.000000000000000000, 1.000000000000000000 ) ) ;
#227 = ORIENTED_EDGE ( 'NONE', *, *, #386, .F. ) ;
#228 = ORIENTED_EDGE ( 'NONE', *, *, #95, .F. ) ;
#229 = VECTOR ( 'NONE', #140, 1000.000000000000000 ) ;
#230 = LINE ( 'NONE', #188, #126 ) ;
#231 = VERTEX_POINT ( 'NONE', #122 ) ;
#232 = DIRECTION ( 'NONE',  ( 1.058365758633415754E-16, -1.000000000000000000, 0.000000000000000000 ) ) ;
#233 = VERTEX_POINT ( 'NONE', #150 ) ;
#234 = ADVANCED_FACE ( 'NONE', ( #273 ), #274, .F. ) ;
#235 = DIRECTION ( 'NONE',  ( 1.000000000000000000, -0.000000000000000000, -0.000000000000000000 ) ) ;
#236 = AXIS2_PLACEMENT_3D ( 'NONE', #390, #114, #301 ) ;
#237 = SHAPE_DEFINITION_REPRESENTATION ( #267, #291 ) ;
#238 = SURFACE_SIDE_STYLE ('',( #296 ) ) ;
#239 = ADVANCED_FACE ( 'NONE', ( #213, #372, #127 ), #153, .F. ) ;
#240 = LINE ( 'NONE', #327, #186 ) ;
#241 = VECTOR ( 'NONE', #300, 1000.000000000000000 ) ;
#242 = LINE ( 'NONE', #12, #214 ) ;
#243 = PLANE ( 'NONE',  #18 ) ;
#244 = VERTEX_POINT ( 'NONE', #369 ) ;
#245 = ADVANCED_FACE ( 'NONE', ( #156 ), #99, .T. ) ;
#246 = CARTESIAN_POINT ( 'NONE',  ( 7.206238122767249621, -1.999999999999999556, -7.500000000000000000 ) ) ;
#247 = VERTEX_POINT ( 'NONE', #182 ) ;
#248 = CARTESIAN_POINT ( 'NONE',  ( -2.000000000000000000, 6.000000000000000000, 7.500000000000000000 ) ) ;
#249 = VECTOR ( 'NONE', #282, 1000.000000000000000 ) ;
#250 = EDGE_LOOP ( 'NONE', ( #27, #222, #340, #227 ) ) ;
#251 = CARTESIAN_POINT ( 'NONE',  ( 0.000000000000000000, 0.000000000000000000, 7.500000000000000000 ) ) ;
#252 = CARTESIAN_POINT ( 'NONE',  ( -2.000000000000000000, 3.000000000000000000, -5.549999999999998934 ) ) ;
#253 = ORIENTED_EDGE ( 'NONE', *, *, #360, .F. ) ;
#254 = CARTESIAN_POINT ( 'NONE',  ( -2.000000000000000000, 6.000000000000000000, 7.500000000000000000 ) ) ;
#255 = LINE ( 'NONE', #106, #268 ) ;
#256 = CLOSED_SHELL ( 'NONE', ( #316, #46, #104, #239, #29, #173, #234, #11, #225, #245, #17, #263 ) ) ;
#257 = CARTESIAN_POINT ( 'NONE',  ( 7.206238122767249621, -1.999999999999999556, 7.500000000000000000 ) ) ;
#258 = DIRECTION ( 'NONE',  ( 0.000000000000000000, 0.000000000000000000, -1.000000000000000000 ) ) ;
#259 = ORIENTED_EDGE ( 'NONE', *, *, #332, .F. ) ;
#260 = DIRECTION ( 'NONE',  ( 1.000000000000000000, -0.000000000000000000, -0.000000000000000000 ) ) ;
#261 = ORIENTED_EDGE ( 'NONE', *, *, #157, .T. ) ;
#262 = AXIS2_PLACEMENT_3D ( 'NONE', #1, #6, #321 ) ;
#263 = ADVANCED_FACE ( 'NONE', ( #309 ), #401, .F. ) ;
#264 = CARTESIAN_POINT ( 'NONE',  ( 1.365481181049296074E-15, 3.000000000000000000, 4.000000000000000000 ) ) ;
#265 = ORIENTED_EDGE ( 'NONE', *, *, #297, .T. ) ;
#266 = CARTESIAN_POINT ( 'NONE',  ( 0.000000000000000000, 0.000000000000000000, 7.500000000000000000 ) ) ;
#267 = PRODUCT_DEFINITION_SHAPE ( 'NONE', 'NONE',  #338 ) ;
#268 = VECTOR ( 'NONE', #352, 1000.000000000000000 ) ;
#269 = PLANE ( 'NONE',  #236 ) ;
#270 = LINE ( 'NONE', #65, #326 ) ;
#271 = CARTESIAN_POINT ( 'NONE',  ( 1.365481181049296074E-15, 3.000000000000000000, -4.000000000000000000 ) ) ;
#272 = VECTOR ( 'NONE', #77, 1000.000000000000000 ) ;
#273 = FACE_OUTER_BOUND ( 'NONE', #224, .T. ) ;
#274 = PLANE ( 'NONE',  #62 ) ;
#275 = ORIENTED_EDGE ( 'NONE', *, *, #366, .F. ) ;
#276 = DIRECTION ( 'NONE',  ( -0.9063077870366526012, -0.4226182617406938902, 0.000000000000000000 ) ) ;
#277 = ORIENTED_EDGE ( 'NONE', *, *, #357, .T. ) ;
#278 = EDGE_CURVE ( 'NONE', #73, #284, #399, .T. ) ;
#279 = DIRECTION ( 'NONE',  ( 0.000000000000000000, 0.000000000000000000, -1.000000000000000000 ) ) ;
#280 = AXIS2_PLACEMENT_3D ( 'NONE', #205, #207, #358 ) ;
#281 = EDGE_LOOP ( 'NONE', ( #295, #319, #81, #261 ) ) ;
#282 = DIRECTION ( 'NONE',  ( -1.000000000000000000, -2.310031143064117865E-16, 0.000000000000000000 ) ) ;
#283 = DIRECTION ( 'NONE',  ( -0.000000000000000000, -0.000000000000000000, -1.000000000000000000 ) ) ;
#284 = VERTEX_POINT ( 'NONE', #218 ) ;
#285 = LINE ( 'NONE', #254, #206 ) ;
#286 = EDGE_CURVE ( 'NONE', #395, #181, #49, .T. ) ;
#287 = ORIENTED_EDGE ( 'NONE', *, *, #386, .T. ) ;
#288 = AXIS2_PLACEMENT_3D ( 'NONE', #341, #31, #109 ) ;
#289 = DIRECTION ( 'NONE',  ( 1.058365758633415754E-16, -1.000000000000000000, 0.000000000000000000 ) ) ;
#290 = ORIENTED_EDGE ( 'NONE', *, *, #24, .F. ) ;
#291 = ADVANCED_BREP_SHAPE_REPRESENTATION ( 'ART_Butee_5', ( #129, #187 ), #57 ) ;
#292 = APPLICATION_PROTOCOL_DEFINITION ( 'draft international standard', 'automotive_design', 1998, #13 ) ;
#293 = DIRECTION ( 'NONE',  ( 0.000000000000000000, 0.000000000000000000, -1.000000000000000000 ) ) ;
#294 = CARTESIAN_POINT ( 'NONE',  ( 7.206238122767249621, -1.999999999999999556, 7.500000000000000000 ) ) ;
#295 = ORIENTED_EDGE ( 'NONE', *, *, #120, .T. ) ;
#296 = SURFACE_STYLE_FILL_AREA ( #170 ) ;
#297 = EDGE_CURVE ( 'NONE', #317, #310, #33, .T. ) ;
#298 = DIRECTION ( 'NONE',  ( 0.000000000000000000, 1.000000000000000000, 0.000000000000000000 ) ) ;
#299 = AXIS2_PLACEMENT_3D ( 'NONE', #257, #384, #168 ) ;
#300 = DIRECTION ( 'NONE',  ( -0.000000000000000000, -0.000000000000000000, -1.000000000000000000 ) ) ;
#301 = DIRECTION ( 'NONE',  ( 1.000000000000000000, 2.310031143064117865E-16, 0.000000000000000000 ) ) ;
#302 = CARTESIAN_POINT ( 'NONE',  ( -2.000000000000000000, 3.000000000000000000, 2.450000000000000622 ) ) ;
#303 = CIRCLE ( 'NONE', #162, 1.549999999999987166 ) ;
#304 = FACE_BOUND ( 'NONE', #5, .T. ) ;
#305 = ORIENTED_EDGE ( 'NONE', *, *, #323, .T. ) ;
#306 = CARTESIAN_POINT ( 'NONE',  ( 7.206238122767249621, 1.664663448792825174E-15, 7.500000000000000000 ) ) ;
#307 = EDGE_CURVE ( 'NONE', #376, #233, #76, .T. ) ;
#308 = ORIENTED_EDGE ( 'NONE', *, *, #400, .T. ) ;
#309 = FACE_OUTER_BOUND ( 'NONE', #131, .T. ) ;
#310 = VERTEX_POINT ( 'NONE', #192 ) ;
#311 = LINE ( 'NONE', #90, #375 ) ;
#312 = CIRCLE ( 'NONE', #134, 1.549999999999999378 ) ;
#313 = VERTEX_POINT ( 'NONE', #353 ) ;
#314 = DIRECTION ( 'NONE',  ( 1.000000000000000000, -0.000000000000000000, -0.000000000000000000 ) ) ;
#315 = ORIENTED_EDGE ( 'NONE', *, *, #219, .T. ) ;
#316 = ADVANCED_FACE ( 'NONE', ( #158 ), #112, .F. ) ;
#317 = VERTEX_POINT ( 'NONE', #138 ) ;
#318 = DIRECTION ( 'NONE',  ( 1.000000000000000000, -0.000000000000000000, -0.000000000000000000 ) ) ;
#319 = ORIENTED_EDGE ( 'NONE', *, *, #176, .F. ) ;
#320 = COLOUR_RGB ( '',0.7921568627450980005, 0.8196078431372548767, 0.9333333333333333481 ) ;
#321 = DIRECTION ( 'NONE',  ( 0.000000000000000000, 0.000000000000000000, -1.000000000000000000 ) ) ;
#322 = FACE_OUTER_BOUND ( 'NONE', #281, .T. ) ;
#323 = EDGE_CURVE ( 'NONE', #4, #244, #351, .T. ) ;
#324 = ORIENTED_EDGE ( 'NONE', *, *, #366, .T. ) ;
#325 = EDGE_LOOP ( 'NONE', ( #382, #32, #64, #324, #397, #152 ) ) ;
#326 = VECTOR ( 'NONE', #125, 1000.000000000000000 ) ;
#327 = CARTESIAN_POINT ( 'NONE',  ( 7.206238122767249621, -1.999999999999999556, 7.500000000000000000 ) ) ;
#328 = UNCERTAINTY_MEASURE_WITH_UNIT (LENGTH_MEASURE( 1.000000000000000082E-05 ), #201, 'distance_accuracy_value', 'NONE');
#329 = FACE_OUTER_BOUND ( 'NONE', #161, .T. ) ;
#330 = STYLED_ITEM ( 'NONE', ( #144 ), #129 ) ;
#331 = LINE ( 'NONE', #385, #344 ) ;
#332 = EDGE_CURVE ( 'NONE', #337, #124, #30, .T. ) ;
#333 = DIRECTION ( 'NONE',  ( -1.000000000000000000, 0.000000000000000000, 0.000000000000000000 ) ) ;
#334 = LINE ( 'NONE', #28, #69 ) ;
#335 = VECTOR ( 'NONE', #98, 1000.000000000000000 ) ;
#336 = CARTESIAN_POINT ( 'NONE',  ( 0.000000000000000000, 0.000000000000000000, 7.500000000000000000 ) ) ;
#337 = VERTEX_POINT ( 'NONE', #223 ) ;
#338 = PRODUCT_DEFINITION ( 'UNKNOWN', '', #70, #50 ) ;
#339 = DIRECTION ( 'NONE',  ( 0.000000000000000000, 0.000000000000000000, -1.000000000000000000 ) ) ;
#340 = ORIENTED_EDGE ( 'NONE', *, *, #332, .T. ) ;
#341 = CARTESIAN_POINT ( 'NONE',  ( -2.000000000000000000, 3.000000000000000000, 4.000000000000000000 ) ) ;
#342 = ORIENTED_EDGE ( 'NONE', *, *, #40, .F. ) ;
#343 = DIRECTION ( 'NONE',  ( 1.000000000000000000, -0.000000000000000000, -0.000000000000000000 ) ) ;
#344 = VECTOR ( 'NONE', #14, 1000.000000000000000 ) ;
#345 = ORIENTED_EDGE ( 'NONE', *, *, #143, .F. ) ;
#346 = LINE ( 'NONE', #374, #110 ) ;
#347 = ORIENTED_EDGE ( 'NONE', *, *, #89, .F. ) ;
#348 =( LENGTH_UNIT ( ) NAMED_UNIT ( * ) SI_UNIT ( .MILLI., .METRE. ) );
#349 = ORIENTED_EDGE ( 'NONE', *, *, #35, .T. ) ;
#350 = EDGE_CURVE ( 'NONE', #135, #198, #312, .T. ) ;
#351 = LINE ( 'NONE', #378, #229 ) ;
#352 = DIRECTION ( 'NONE',  ( 1.000000000000000000, -0.000000000000000000, -0.000000000000000000 ) ) ;
#353 = CARTESIAN_POINT ( 'NONE',  ( 7.206238122767249621, 1.664663448792825174E-15, 7.500000000000000000 ) ) ;
#354 = ORIENTED_EDGE ( 'NONE', *, *, #219, .F. ) ;
#355 = PRODUCT_CONTEXT ( 'NONE', #13, 'mechanical' ) ;
#356 = ORIENTED_EDGE ( 'NONE', *, *, #307, .T. ) ;
#357 = EDGE_CURVE ( 'NONE', #231, #317, #132, .T. ) ;
#358 = DIRECTION ( 'NONE',  ( 0.000000000000000000, 0.000000000000000000, -1.000000000000000000 ) ) ;
#359 = CARTESIAN_POINT ( 'NONE',  ( 0.000000000000000000, 0.000000000000000000, -7.500000000000000000 ) ) ;
#360 = EDGE_CURVE ( 'NONE', #124, #337, #178, .T. ) ;
#361 = FILL_AREA_STYLE_COLOUR ( '', #320 ) ;
#362 = AXIS2_PLACEMENT_3D ( 'NONE', #165, #7, #139 ) ;
#363 = DIRECTION ( 'NONE',  ( 0.9063077870366526012, 0.4226182617406938902, 0.000000000000000000 ) ) ;
#364 = DIRECTION ( 'NONE',  ( 0.000000000000000000, 0.000000000000000000, 1.000000000000000000 ) ) ;
#365 = ORIENTED_EDGE ( 'NONE', *, *, #389, .T. ) ;
#366 = EDGE_CURVE ( 'NONE', #185, #231, #285, .T. ) ;
#367 = DIRECTION ( 'NONE',  ( -1.000000000000000000, 0.000000000000000000, 0.000000000000000000 ) ) ;
#368 = ORIENTED_EDGE ( 'NONE', *, *, #157, .F. ) ;
#369 = CARTESIAN_POINT ( 'NONE',  ( 0.000000000000000000, 0.000000000000000000, -7.500000000000000000 ) ) ;
#370 = DIRECTION ( 'NONE',  ( 1.000000000000000000, 1.058365758633415754E-16, -0.000000000000000000 ) ) ;
#371 = ORIENTED_EDGE ( 'NONE', *, *, #350, .T. ) ;
#372 = FACE_BOUND ( 'NONE', #189, .T. ) ;
#373 = ORIENTED_EDGE ( 'NONE', *, *, #137, .T. ) ;
#374 = CARTESIAN_POINT ( 'NONE',  ( -2.000000000000000000, 6.000000000000000000, -7.500000000000000000 ) ) ;
#375 = VECTOR ( 'NONE', #22, 1000.000000000000000 ) ;
#376 = VERTEX_POINT ( 'NONE', #44 ) ;
#377 = CARTESIAN_POINT ( 'NONE',  ( 0.000000000000000000, 3.000000000000000000, -4.000000000000000000 ) ) ;
#378 = CARTESIAN_POINT ( 'NONE',  ( 7.206238122767249621, 1.664663448792825174E-15, -7.500000000000000000 ) ) ;
#379 = ORIENTED_EDGE ( 'NONE', *, *, #176, .T. ) ;
#380 = PRODUCT_RELATED_PRODUCT_CATEGORY ( 'part', '', ( #203 ) ) ;
#381 = DIRECTION ( 'NONE',  ( 0.000000000000000000, 0.000000000000000000, -1.000000000000000000 ) ) ;
#382 = ORIENTED_EDGE ( 'NONE', *, *, #204, .T. ) ;
#383 = CARTESIAN_POINT ( 'NONE',  ( -1.999999999999998668, -6.292939339444798108, -7.500000000000000000 ) ) ;
#384 = DIRECTION ( 'NONE',  ( -1.000000000000000000, 0.000000000000000000, 0.000000000000000000 ) ) ;
#385 = CARTESIAN_POINT ( 'NONE',  ( 0.000000000000000000, 3.000000000000000000, -2.450000000000006839 ) ) ;
#386 = EDGE_CURVE ( 'NONE', #181, #124, #230, .T. ) ;
#387 = FACE_OUTER_BOUND ( 'NONE', #9, .T. ) ;
#388 = AXIS2_PLACEMENT_3D ( 'NONE', #377, #43, #293 ) ;
#389 = EDGE_CURVE ( 'NONE', #164, #310, #42, .T. ) ;
#390 = CARTESIAN_POINT ( 'NONE',  ( 7.206238122767249621, 1.664663448792825174E-15, 7.500000000000000000 ) ) ;
#391 = CYLINDRICAL_SURFACE ( 'NONE', #155, 1.549999999999993161 ) ;
#392 = AXIS2_PLACEMENT_3D ( 'NONE', #63, #339, #180 ) ;
#393 = CARTESIAN_POINT ( 'NONE',  ( -2.000000000000000000, 6.000000000000000000, 7.500000000000000000 ) ) ;
#394 = DIRECTION ( 'NONE',  ( -0.000000000000000000, -0.000000000000000000, -1.000000000000000000 ) ) ;
#395 = VERTEX_POINT ( 'NONE', #160 ) ;
#396 = DIRECTION ( 'NONE',  ( -1.000000000000000000, 0.000000000000000000, 0.000000000000000000 ) ) ;
#397 = ORIENTED_EDGE ( 'NONE', *, *, #89, .T. ) ;
#398 = VECTOR ( 'NONE', #184, 1000.000000000000000 ) ;
#399 = LINE ( 'NONE', #251, #335 ) ;
#400 = EDGE_CURVE ( 'NONE', #247, #317, #346, .T. ) ;
#401 = CYLINDRICAL_SURFACE ( 'NONE', #78, 1.549999999999993161 ) ;
ENDSEC;
END-ISO-10303-21;
