ISO-10303-21;
HEADER;
FILE_DESCRIPTION (( 'STEP AP214' ),
    '1' );
FILE_NAME ('ART_Butee_0.STEP',
    '2023-04-12T09:11:47',
    ( '' ),
    ( '' ),
    'SwSTEP 2.0',
    'SolidWorks 2023',
    '' );
FILE_SCHEMA (( 'AUTOMOTIVE_DESIGN' ));
ENDSEC;

DATA;
#1 = EDGE_CURVE ( 'NONE', #271, #346, #138, .T. ) ;
#2 = DIRECTION ( 'NONE',  ( 1.000000000000000000, -0.000000000000000000, -0.000000000000000000 ) ) ;
#3 = PRODUCT_DEFINITION_FORMATION_WITH_SPECIFIED_SOURCE ( 'ANY', '', #47, .NOT_KNOWN. ) ;
#4 = CARTESIAN_POINT ( 'NONE',  ( -2.000000000000000000, 6.000000000000000000, 7.500000000000000000 ) ) ;
#5 = ORIENTED_EDGE ( 'NONE', *, *, #245, .T. ) ;
#6 = DIRECTION ( 'NONE',  ( 1.236277172953271450E-16, -1.000000000000000000, 0.000000000000000000 ) ) ;
#7 = PRODUCT_DEFINITION_CONTEXT ( 'detailed design', #157, 'design' ) ;
#8 = EDGE_LOOP ( 'NONE', ( #254, #102, #108, #190 ) ) ;
#9 = EDGE_LOOP ( 'NONE', ( #79, #199 ) ) ;
#10 = CIRCLE ( 'NONE', #68, 1.549999999999987166 ) ;
#11 = ORIENTED_EDGE ( 'NONE', *, *, #131, .F. ) ;
#12 = ADVANCED_BREP_SHAPE_REPRESENTATION ( 'ART_Butee_0', ( #381, #139 ), #62 ) ;
#13 = CARTESIAN_POINT ( 'NONE',  ( 1.365481181049296074E-15, 3.000000000000000000, -5.549999999999987388 ) ) ;
#14 = ORIENTED_EDGE ( 'NONE', *, *, #61, .T. ) ;
#15 = FILL_AREA_STYLE ('',( #327 ) ) ;
#16 = EDGE_CURVE ( 'NONE', #201, #271, #124, .T. ) ;
#17 = VERTEX_POINT ( 'NONE', #331 ) ;
#18 = SURFACE_STYLE_FILL_AREA ( #15 ) ;
#19 = VERTEX_POINT ( 'NONE', #232 ) ;
#20 = ORIENTED_EDGE ( 'NONE', *, *, #31, .F. ) ;
#21 = CARTESIAN_POINT ( 'NONE',  ( 7.581415712957817021, 1.308233960450047155E-15, -7.500000000000000000 ) ) ;
#22 = AXIS2_PLACEMENT_3D ( 'NONE', #256, #132, #40 ) ;
#23 = DIRECTION ( 'NONE',  ( 1.000000000000000000, -0.000000000000000000, -0.000000000000000000 ) ) ;
#24 = DIRECTION ( 'NONE',  ( -3.469446951953613696E-16, 1.000000000000000000, 0.000000000000000000 ) ) ;
#25 = CARTESIAN_POINT ( 'NONE',  ( -2.000000000000000000, 6.000000000000000000, 7.500000000000000000 ) ) ;
#26 = EDGE_CURVE ( 'NONE', #249, #127, #177, .T. ) ;
#27 = VECTOR ( 'NONE', #24, 1000.000000000000000 ) ;
#28 = DIRECTION ( 'NONE',  ( -1.000000000000000000, -1.725580036739144170E-16, 0.000000000000000000 ) ) ;
#29 = LINE ( 'NONE', #187, #318 ) ;
#30 = EDGE_LOOP ( 'NONE', ( #355, #78 ) ) ;
#31 = EDGE_CURVE ( 'NONE', #346, #258, #55, .T. ) ;
#32 = CARTESIAN_POINT ( 'NONE',  ( 0.000000000000000000, 3.000000000000000000, -2.450000000000006839 ) ) ;
#33 = LINE ( 'NONE', #158, #103 ) ;
#34 = AXIS2_PLACEMENT_3D ( 'NONE', #397, #186, #53 ) ;
#35 = LINE ( 'NONE', #244, #144 ) ;
#36 = EDGE_CURVE ( 'NONE', #161, #350, #382, .T. ) ;
#37 = ORIENTED_EDGE ( 'NONE', *, *, #393, .T. ) ;
#38 = CARTESIAN_POINT ( 'NONE',  ( 7.581415712957817021, 1.308233960450047155E-15, 7.500000000000000000 ) ) ;
#39 = EDGE_LOOP ( 'NONE', ( #98, #60, #227, #359 ) ) ;
#40 = DIRECTION ( 'NONE',  ( 0.000000000000000000, 0.000000000000000000, -1.000000000000000000 ) ) ;
#41 = ORIENTED_EDGE ( 'NONE', *, *, #278, .F. ) ;
#42 = LINE ( 'NONE', #354, #119 ) ;
#43 = ORIENTED_EDGE ( 'NONE', *, *, #245, .F. ) ;
#44 = EDGE_CURVE ( 'NONE', #19, #130, #212, .T. ) ;
#45 = DIRECTION ( 'NONE',  ( -0.000000000000000000, -0.000000000000000000, -1.000000000000000000 ) ) ;
#46 = ORIENTED_EDGE ( 'NONE', *, *, #310, .F. ) ;
#47 = PRODUCT ( 'ART_Butee_0', 'ART_Butee_0', '', ( #178 ) ) ;
#48 =( LENGTH_UNIT ( ) NAMED_UNIT ( * ) SI_UNIT ( .MILLI., .METRE. ) );
#49 = ORIENTED_EDGE ( 'NONE', *, *, #44, .T. ) ;
#50 = VECTOR ( 'NONE', #114, 1000.000000000000000 ) ;
#51 = ORIENTED_EDGE ( 'NONE', *, *, #210, .F. ) ;
#52 = PRODUCT_DEFINITION ( 'UNKNOWN', '', #3, #7 ) ;
#53 = DIRECTION ( 'NONE',  ( 0.000000000000000000, 0.000000000000000000, -1.000000000000000000 ) ) ;
#54 = FACE_OUTER_BOUND ( 'NONE', #135, .T. ) ;
#55 = CIRCLE ( 'NONE', #282, 1.549999999999987166 ) ;
#56 = CARTESIAN_POINT ( 'NONE',  ( 1.365481181049296074E-15, 3.000000000000000000, 4.000000000000000000 ) ) ;
#57 = CARTESIAN_POINT ( 'NONE',  ( 7.581415712957817021, 1.308233960450047155E-15, 7.500000000000000000 ) ) ;
#58 = LINE ( 'NONE', #91, #221 ) ;
#59 = DIRECTION ( 'NONE',  ( -1.000000000000000000, 0.000000000000000000, 0.000000000000000000 ) ) ;
#60 = ORIENTED_EDGE ( 'NONE', *, *, #235, .F. ) ;
#61 = EDGE_CURVE ( 'NONE', #258, #346, #10, .T. ) ;
#62 =( GEOMETRIC_REPRESENTATION_CONTEXT ( 3 ) GLOBAL_UNCERTAINTY_ASSIGNED_CONTEXT ( ( #198 ) ) GLOBAL_UNIT_ASSIGNED_CONTEXT ( ( #105, #383, #225 ) ) REPRESENTATION_CONTEXT ( 'NONE', 'WORKASPACE' ) );
#63 = DIRECTION ( 'NONE',  ( 0.000000000000000000, 0.000000000000000000, -1.000000000000000000 ) ) ;
#64 = ORIENTED_EDGE ( 'NONE', *, *, #278, .T. ) ;
#65 = FACE_BOUND ( 'NONE', #30, .T. ) ;
#66 = ORIENTED_EDGE ( 'NONE', *, *, #269, .T. ) ;
#67 = CARTESIAN_POINT ( 'NONE',  ( -2.000000000000000000, 3.000000000000000000, -4.000000000000000000 ) ) ;
#68 = AXIS2_PLACEMENT_3D ( 'NONE', #368, #23, #185 ) ;
#69 = CARTESIAN_POINT ( 'NONE',  ( -1.999999999999998224, -8.031832941093830058, 7.500000000000000000 ) ) ;
#70 = ORIENTED_EDGE ( 'NONE', *, *, #287, .F. ) ;
#71 = CARTESIAN_POINT ( 'NONE',  ( 7.581415712957817910, -2.499999999999999556, 7.500000000000000000 ) ) ;
#72 = ORIENTED_EDGE ( 'NONE', *, *, #184, .F. ) ;
#73 = ORIENTED_EDGE ( 'NONE', *, *, #61, .F. ) ;
#74 = ADVANCED_FACE ( 'NONE', ( #54 ), #243, .F. ) ;
#75 = PRESENTATION_LAYER_ASSIGNMENT (  '', '', ( #364 ) ) ;
#76 = EDGE_LOOP ( 'NONE', ( #163, #374, #171, #401 ) ) ;
#77 = CARTESIAN_POINT ( 'NONE',  ( 0.000000000000000000, 3.000000000000000000, -4.000000000000000000 ) ) ;
#78 = ORIENTED_EDGE ( 'NONE', *, *, #36, .F. ) ;
#79 = ORIENTED_EDGE ( 'NONE', *, *, #344, .T. ) ;
#80 = VECTOR ( 'NONE', #336, 1000.000000000000000 ) ;
#81 = AXIS2_PLACEMENT_3D ( 'NONE', #67, #281, #194 ) ;
#82 = AXIS2_PLACEMENT_3D ( 'NONE', #4, #253, #122 ) ;
#83 = FACE_OUTER_BOUND ( 'NONE', #76, .T. ) ;
#84 = DIRECTION ( 'NONE',  ( 0.000000000000000000, 0.000000000000000000, 1.000000000000000000 ) ) ;
#85 = DIRECTION ( 'NONE',  ( 0.000000000000000000, 0.000000000000000000, -1.000000000000000000 ) ) ;
#86 = CARTESIAN_POINT ( 'NONE',  ( 0.000000000000000000, 6.000000000000000000, 7.500000000000000000 ) ) ;
#87 = ADVANCED_FACE ( 'NONE', ( #120 ), #367, .F. ) ;
#88 = CLOSED_SHELL ( 'NONE', ( #74, #252, #87, #261, #180, #292, #370, #197, #99, #191, #366, #145 ) ) ;
#89 = CARTESIAN_POINT ( 'NONE',  ( 0.000000000000000000, 3.000000000000000000, 2.450000000000006839 ) ) ;
#90 = APPLICATION_PROTOCOL_DEFINITION ( 'draft international standard', 'automotive_design', 1998, #157 ) ;
#91 = CARTESIAN_POINT ( 'NONE',  ( 7.581415712957817910, -2.499999999999999556, -7.500000000000000000 ) ) ;
#92 = CARTESIAN_POINT ( 'NONE',  ( 7.581415712957817910, -2.499999999999999556, 7.500000000000000000 ) ) ;
#93 = CARTESIAN_POINT ( 'NONE',  ( 0.000000000000000000, 3.000000000000000000, 5.549999999999993605 ) ) ;
#94 = ORIENTED_EDGE ( 'NONE', *, *, #235, .T. ) ;
#95 = CARTESIAN_POINT ( 'NONE',  ( -2.000000000000000000, 3.000000000000000000, -2.450000000000000622 ) ) ;
#96 = EDGE_LOOP ( 'NONE', ( #20, #73 ) ) ;
#97 = FACE_BOUND ( 'NONE', #9, .T. ) ;
#98 = ORIENTED_EDGE ( 'NONE', *, *, #218, .F. ) ;
#99 = ADVANCED_FACE ( 'NONE', ( #309 ), #365, .F. ) ;
#100 = DIRECTION ( 'NONE',  ( 3.469446951953613696E-16, -1.000000000000000000, 0.000000000000000000 ) ) ;
#101 = UNCERTAINTY_MEASURE_WITH_UNIT (LENGTH_MEASURE( 1.000000000000000082E-05 ), #48, 'distance_accuracy_value', 'NONE');
#102 = ORIENTED_EDGE ( 'NONE', *, *, #173, .F. ) ;
#103 = VECTOR ( 'NONE', #6, 1000.000000000000000 ) ;
#104 = ORIENTED_EDGE ( 'NONE', *, *, #377, .F. ) ;
#105 =( LENGTH_UNIT ( ) NAMED_UNIT ( * ) SI_UNIT ( .MILLI., .METRE. ) );
#106 = EDGE_CURVE ( 'NONE', #224, #19, #58, .T. ) ;
#107 = VERTEX_POINT ( 'NONE', #25 ) ;
#108 = ORIENTED_EDGE ( 'NONE', *, *, #116, .F. ) ;
#109 = DIRECTION ( 'NONE',  ( -0.000000000000000000, -0.000000000000000000, -1.000000000000000000 ) ) ;
#110 = DIRECTION ( 'NONE',  ( 0.000000000000000000, 0.000000000000000000, -1.000000000000000000 ) ) ;
#111 = EDGE_LOOP ( 'NONE', ( #193, #317, #14, #206 ) ) ;
#112 = CARTESIAN_POINT ( 'NONE',  ( 1.365481181049296074E-15, 3.000000000000000000, -4.000000000000000000 ) ) ;
#113 = CIRCLE ( 'NONE', #22, 1.549999999999999378 ) ;
#114 = DIRECTION ( 'NONE',  ( 0.000000000000000000, 1.000000000000000000, 0.000000000000000000 ) ) ;
#115 = DIRECTION ( 'NONE',  ( -0.000000000000000000, -0.000000000000000000, -1.000000000000000000 ) ) ;
#116 = EDGE_CURVE ( 'NONE', #313, #249, #179, .T. ) ;
#117 = APPLICATION_PROTOCOL_DEFINITION ( 'draft international standard', 'automotive_design', 1998, #136 ) ;
#118 = CARTESIAN_POINT ( 'NONE',  ( 0.000000000000000000, 0.000000000000000000, -7.500000000000000000 ) ) ;
#119 = VECTOR ( 'NONE', #290, 1000.000000000000000 ) ;
#120 = FACE_OUTER_BOUND ( 'NONE', #226, .T. ) ;
#121 = EDGE_CURVE ( 'NONE', #313, #224, #277, .T. ) ;
#122 = DIRECTION ( 'NONE',  ( -1.236277172953271943E-16, 1.000000000000000000, 0.000000000000000000 ) ) ;
#123 = DIRECTION ( 'NONE',  ( -0.000000000000000000, -0.000000000000000000, -1.000000000000000000 ) ) ;
#124 = CIRCLE ( 'NONE', #356, 1.549999999999999378 ) ;
#125 = PLANE ( 'NONE',  #369 ) ;
#126 = FACE_BOUND ( 'NONE', #96, .T. ) ;
#127 = VERTEX_POINT ( 'NONE', #395 ) ;
#128 = FACE_OUTER_BOUND ( 'NONE', #111, .T. ) ;
#129 = AXIS2_PLACEMENT_3D ( 'NONE', #92, #246, #100 ) ;
#130 = VERTEX_POINT ( 'NONE', #241 ) ;
#131 = EDGE_CURVE ( 'NONE', #130, #202, #151, .T. ) ;
#132 = DIRECTION ( 'NONE',  ( 1.000000000000000000, -0.000000000000000000, -0.000000000000000000 ) ) ;
#133 = ORIENTED_EDGE ( 'NONE', *, *, #116, .T. ) ;
#134 = SURFACE_SIDE_STYLE ('',( #18 ) ) ;
#135 = EDGE_LOOP ( 'NONE', ( #104, #251, #315, #284 ) ) ;
#136 = APPLICATION_CONTEXT ( 'automotive_design' ) ;
#137 = CARTESIAN_POINT ( 'NONE',  ( -2.000000000000000000, 6.000000000000000000, -7.500000000000000000 ) ) ;
#138 = LINE ( 'NONE', #265, #302 ) ;
#139 = AXIS2_PLACEMENT_3D ( 'NONE', #270, #84, #333 ) ;
#140 =( NAMED_UNIT ( * ) SI_UNIT ( $, .STERADIAN. ) SOLID_ANGLE_UNIT ( ) );
#141 = ORIENTED_EDGE ( 'NONE', *, *, #26, .F. ) ;
#142 = VERTEX_POINT ( 'NONE', #399 ) ;
#143 = DIRECTION ( 'NONE',  ( 1.000000000000000000, -0.000000000000000000, -0.000000000000000000 ) ) ;
#144 = VECTOR ( 'NONE', #378, 1000.000000000000000 ) ;
#145 = ADVANCED_FACE ( 'NONE', ( #303 ), #237, .F. ) ;
#146 = DIRECTION ( 'NONE',  ( -1.000000000000000000, 0.000000000000000000, 0.000000000000000000 ) ) ;
#147 = PLANE ( 'NONE',  #255 ) ;
#148 = CARTESIAN_POINT ( 'NONE',  ( 0.000000000000000000, 3.000000000000000000, 4.000000000000000000 ) ) ;
#149 = AXIS2_PLACEMENT_3D ( 'NONE', #148, #338, #240 ) ;
#150 = CIRCLE ( 'NONE', #81, 1.549999999999999378 ) ;
#151 = LINE ( 'NONE', #276, #50 ) ;
#152 = CARTESIAN_POINT ( 'NONE',  ( 0.000000000000000000, 6.000000000000000000, -7.500000000000000000 ) ) ;
#153 = ORIENTED_EDGE ( 'NONE', *, *, #173, .T. ) ;
#154 = LINE ( 'NONE', #360, #167 ) ;
#155 = VERTEX_POINT ( 'NONE', #363 ) ;
#156 = EDGE_CURVE ( 'NONE', #380, #350, #301, .T. ) ;
#157 = APPLICATION_CONTEXT ( 'automotive_design' ) ;
#158 = CARTESIAN_POINT ( 'NONE',  ( -2.000000000000000000, 6.000000000000000000, 7.500000000000000000 ) ) ;
#159 = ORIENTED_EDGE ( 'NONE', *, *, #306, .T. ) ;
#160 = DIRECTION ( 'NONE',  ( 1.000000000000000000, -0.000000000000000000, -0.000000000000000000 ) ) ;
#161 = VERTEX_POINT ( 'NONE', #182 ) ;
#162 = FACE_OUTER_BOUND ( 'NONE', #353, .T. ) ;
#163 = ORIENTED_EDGE ( 'NONE', *, *, #184, .T. ) ;
#164 = DIRECTION ( 'NONE',  ( 0.000000000000000000, 0.000000000000000000, -1.000000000000000000 ) ) ;
#165 = VECTOR ( 'NONE', #391, 1000.000000000000000 ) ;
#166 = DIRECTION ( 'NONE',  ( 0.000000000000000000, 0.000000000000000000, -1.000000000000000000 ) ) ;
#167 = VECTOR ( 'NONE', #109, 1000.000000000000000 ) ;
#168 = DIRECTION ( 'NONE',  ( -0.8660254037844415942, -0.4999999999999950040, 0.000000000000000000 ) ) ;
#169 = ORIENTED_EDGE ( 'NONE', *, *, #344, .F. ) ;
#170 = DIRECTION ( 'NONE',  ( 1.000000000000000000, -0.000000000000000000, -0.000000000000000000 ) ) ;
#171 = ORIENTED_EDGE ( 'NONE', *, *, #323, .F. ) ;
#172 = SURFACE_STYLE_USAGE ( .BOTH. , #134 ) ;
#173 = EDGE_CURVE ( 'NONE', #249, #19, #213, .T. ) ;
#174 = EDGE_LOOP ( 'NONE', ( #51, #169, #294, #291 ) ) ;
#175 = VECTOR ( 'NONE', #123, 1000.000000000000000 ) ;
#176 =( NAMED_UNIT ( * ) PLANE_ANGLE_UNIT ( ) SI_UNIT ( $, .RADIAN. ) );
#177 = LINE ( 'NONE', #300, #165 ) ;
#178 = PRODUCT_CONTEXT ( 'NONE', #136, 'mechanical' ) ;
#179 = LINE ( 'NONE', #273, #27 ) ;
#180 = ADVANCED_FACE ( 'NONE', ( #83 ), #147, .F. ) ;
#181 = SHAPE_DEFINITION_REPRESENTATION ( #328, #12 ) ;
#182 = CARTESIAN_POINT ( 'NONE',  ( 1.365481181049296074E-15, 3.000000000000000000, 5.549999999999987388 ) ) ;
#183 = DIRECTION ( 'NONE',  ( -3.469446951953613696E-16, 1.000000000000000000, 0.000000000000000000 ) ) ;
#184 = EDGE_CURVE ( 'NONE', #202, #343, #334, .T. ) ;
#185 = DIRECTION ( 'NONE',  ( 0.000000000000000000, 0.000000000000000000, -1.000000000000000000 ) ) ;
#186 = DIRECTION ( 'NONE',  ( 1.000000000000000000, -0.000000000000000000, -0.000000000000000000 ) ) ;
#187 = CARTESIAN_POINT ( 'NONE',  ( 0.000000000000000000, 0.000000000000000000, 7.500000000000000000 ) ) ;
#188 = ORIENTED_EDGE ( 'NONE', *, *, #44, .F. ) ;
#189 = DIRECTION ( 'NONE',  ( -0.000000000000000000, -0.000000000000000000, -1.000000000000000000 ) ) ;
#190 = ORIENTED_EDGE ( 'NONE', *, *, #121, .T. ) ;
#191 = ADVANCED_FACE ( 'NONE', ( #239 ), #396, .T. ) ;
#192 = CARTESIAN_POINT ( 'NONE',  ( -2.000000000000000000, 3.000000000000000000, -5.549999999999998934 ) ) ;
#193 = ORIENTED_EDGE ( 'NONE', *, *, #16, .F. ) ;
#194 = DIRECTION ( 'NONE',  ( 0.000000000000000000, 0.000000000000000000, -1.000000000000000000 ) ) ;
#195 = CIRCLE ( 'NONE', #223, 1.549999999999999378 ) ;
#196 = LINE ( 'NONE', #340, #175 ) ;
#197 = ADVANCED_FACE ( 'NONE', ( #379 ), #319, .F. ) ;
#198 = UNCERTAINTY_MEASURE_WITH_UNIT (LENGTH_MEASURE( 1.000000000000000082E-05 ), #105, 'distance_accuracy_value', 'NONE');
#199 = ORIENTED_EDGE ( 'NONE', *, *, #377, .T. ) ;
#200 = CARTESIAN_POINT ( 'NONE',  ( -2.000000000000000000, 6.000000000000000000, 7.500000000000000000 ) ) ;
#201 = VERTEX_POINT ( 'NONE', #95 ) ;
#202 = VERTEX_POINT ( 'NONE', #152 ) ;
#203 = DIRECTION ( 'NONE',  ( 0.000000000000000000, 0.000000000000000000, -1.000000000000000000 ) ) ;
#204 = ORIENTED_EDGE ( 'NONE', *, *, #306, .F. ) ;
#205 = CARTESIAN_POINT ( 'NONE',  ( 1.365481181049296074E-15, 3.000000000000000000, 2.450000000000013056 ) ) ;
#206 = ORIENTED_EDGE ( 'NONE', *, *, #1, .F. ) ;
#207 = VECTOR ( 'NONE', #307, 1000.000000000000000 ) ;
#208 = AXIS2_PLACEMENT_3D ( 'NONE', #324, #263, #168 ) ;
#209 = DIRECTION ( 'NONE',  ( 0.000000000000000000, -0.000000000000000000, -1.000000000000000000 ) ) ;
#210 = EDGE_CURVE ( 'NONE', #17, #161, #222, .T. ) ;
#211 = CARTESIAN_POINT ( 'NONE',  ( 7.581415712957817910, -2.499999999999999556, 7.500000000000000000 ) ) ;
#212 = LINE ( 'NONE', #21, #335 ) ;
#213 = LINE ( 'NONE', #57, #207 ) ;
#214 = DIRECTION ( 'NONE',  ( 1.000000000000000000, 1.725580036739144170E-16, 0.000000000000000000 ) ) ;
#215 = CARTESIAN_POINT ( 'NONE',  ( -1.999999999999998224, -8.031832941093830058, -7.500000000000000000 ) ) ;
#216 = VECTOR ( 'NONE', #2, 1000.000000000000000 ) ;
#217 = CARTESIAN_POINT ( 'NONE',  ( 0.000000000000000000, 0.000000000000000000, 7.500000000000000000 ) ) ;
#218 = EDGE_CURVE ( 'NONE', #201, #258, #375, .T. ) ;
#219 = CYLINDRICAL_SURFACE ( 'NONE', #238, 1.549999999999993161 ) ;
#220 = DIRECTION ( 'NONE',  ( 1.000000000000000000, -0.000000000000000000, -0.000000000000000000 ) ) ;
#221 = VECTOR ( 'NONE', #183, 1000.000000000000000 ) ;
#222 = LINE ( 'NONE', #93, #362 ) ;
#223 = AXIS2_PLACEMENT_3D ( 'NONE', #387, #321, #164 ) ;
#224 = VERTEX_POINT ( 'NONE', #312 ) ;
#225 =( NAMED_UNIT ( * ) SI_UNIT ( $, .STERADIAN. ) SOLID_ANGLE_UNIT ( ) );
#226 = EDGE_LOOP ( 'NONE', ( #49, #204, #141, #153 ) ) ;
#227 = ORIENTED_EDGE ( 'NONE', *, *, #1, .T. ) ;
#228 = ORIENTED_EDGE ( 'NONE', *, *, #298, .F. ) ;
#229 = VECTOR ( 'NONE', #45, 1000.000000000000000 ) ;
#230 = EDGE_CURVE ( 'NONE', #350, #161, #304, .T. ) ;
#231 = FACE_OUTER_BOUND ( 'NONE', #39, .T. ) ;
#232 = CARTESIAN_POINT ( 'NONE',  ( 7.581415712957817021, 1.308233960450047155E-15, -7.500000000000000000 ) ) ;
#233 = PLANE ( 'NONE',  #208 ) ;
#234 = ORIENTED_EDGE ( 'NONE', *, *, #131, .T. ) ;
#235 = EDGE_CURVE ( 'NONE', #271, #201, #150, .T. ) ;
#236 = AXIS2_PLACEMENT_3D ( 'NONE', #337, #272, #214 ) ;
#237 = CYLINDRICAL_SURFACE ( 'NONE', #149, 1.549999999999993161 ) ;
#238 = AXIS2_PLACEMENT_3D ( 'NONE', #248, #220, #279 ) ;
#239 = FACE_OUTER_BOUND ( 'NONE', #376, .T. ) ;
#240 = DIRECTION ( 'NONE',  ( 0.000000000000000000, 0.000000000000000000, -1.000000000000000000 ) ) ;
#241 = CARTESIAN_POINT ( 'NONE',  ( 0.000000000000000000, 0.000000000000000000, -7.500000000000000000 ) ) ;
#242 = AXIS2_PLACEMENT_3D ( 'NONE', #56, #332, #85 ) ;
#243 = CYLINDRICAL_SURFACE ( 'NONE', #34, 1.549999999999993161 ) ;
#244 = CARTESIAN_POINT ( 'NONE',  ( -2.000000000000000000, 6.000000000000000000, -7.500000000000000000 ) ) ;
#245 = EDGE_CURVE ( 'NONE', #343, #142, #35, .T. ) ;
#246 = DIRECTION ( 'NONE',  ( -1.000000000000000000, -3.469446951953613696E-16, 0.000000000000000000 ) ) ;
#247 = ORIENTED_EDGE ( 'NONE', *, *, #352, .T. ) ;
#248 = CARTESIAN_POINT ( 'NONE',  ( 0.000000000000000000, 3.000000000000000000, -4.000000000000000000 ) ) ;
#249 = VERTEX_POINT ( 'NONE', #38 ) ;
#250 = PLANE ( 'NONE',  #82 ) ;
#251 = ORIENTED_EDGE ( 'NONE', *, *, #210, .T. ) ;
#252 = ADVANCED_FACE ( 'NONE', ( #128 ), #219, .F. ) ;
#253 = DIRECTION ( 'NONE',  ( 1.000000000000000000, 1.236277172953271943E-16, -0.000000000000000000 ) ) ;
#254 = ORIENTED_EDGE ( 'NONE', *, *, #106, .T. ) ;
#255 = AXIS2_PLACEMENT_3D ( 'NONE', #86, #394, #209 ) ;
#256 = CARTESIAN_POINT ( 'NONE',  ( -2.000000000000000000, 3.000000000000000000, 4.000000000000000000 ) ) ;
#257 = VECTOR ( 'NONE', #389, 1000.000000000000000 ) ;
#258 = VERTEX_POINT ( 'NONE', #342 ) ;
#259 = CARTESIAN_POINT ( 'NONE',  ( -1.999999999999998224, -8.031832941093830058, 7.500000000000000000 ) ) ;
#260 = EDGE_LOOP ( 'NONE', ( #66, #361, #262, #280 ) ) ;
#261 = ADVANCED_FACE ( 'NONE', ( #65, #126, #162 ), #125, .F. ) ;
#262 = ORIENTED_EDGE ( 'NONE', *, *, #393, .F. ) ;
#263 = DIRECTION ( 'NONE',  ( -0.4999999999999950040, 0.8660254037844415942, 0.000000000000000000 ) ) ;
#264 = AXIS2_PLACEMENT_3D ( 'NONE', #308, #371, #146 ) ;
#265 = CARTESIAN_POINT ( 'NONE',  ( 0.000000000000000000, 3.000000000000000000, -5.549999999999993605 ) ) ;
#266 = COLOUR_RGB ( '',0.7921568627450980005, 0.8196078431372548767, 0.9333333333333333481 ) ;
#267 = LINE ( 'NONE', #259, #257 ) ;
#268 = ORIENTED_EDGE ( 'NONE', *, *, #16, .T. ) ;
#269 = EDGE_CURVE ( 'NONE', #142, #224, #372, .T. ) ;
#270 = CARTESIAN_POINT ( 'NONE',  ( 0.000000000000000000, 0.000000000000000000, 0.000000000000000000 ) ) ;
#271 = VERTEX_POINT ( 'NONE', #192 ) ;
#272 = DIRECTION ( 'NONE',  ( 1.725580036739144170E-16, -1.000000000000000000, 0.000000000000000000 ) ) ;
#273 = CARTESIAN_POINT ( 'NONE',  ( 7.581415712957817910, -2.499999999999999556, 7.500000000000000000 ) ) ;
#274 = CARTESIAN_POINT ( 'NONE',  ( 0.000000000000000000, 6.000000000000000000, -7.500000000000000000 ) ) ;
#275 = PRODUCT_RELATED_PRODUCT_CATEGORY ( 'part', '', ( #47 ) ) ;
#276 = CARTESIAN_POINT ( 'NONE',  ( 0.000000000000000000, 0.000000000000000000, -7.500000000000000000 ) ) ;
#277 = LINE ( 'NONE', #211, #392 ) ;
#278 = EDGE_CURVE ( 'NONE', #127, #155, #29, .T. ) ;
#279 = DIRECTION ( 'NONE',  ( 0.000000000000000000, 0.000000000000000000, -1.000000000000000000 ) ) ;
#280 = ORIENTED_EDGE ( 'NONE', *, *, #310, .T. ) ;
#281 = DIRECTION ( 'NONE',  ( 1.000000000000000000, -0.000000000000000000, -0.000000000000000000 ) ) ;
#282 = AXIS2_PLACEMENT_3D ( 'NONE', #112, #322, #166 ) ;
#283 = FACE_OUTER_BOUND ( 'NONE', #357, .T. ) ;
#284 = ORIENTED_EDGE ( 'NONE', *, *, #156, .F. ) ;
#285 = CARTESIAN_POINT ( 'NONE',  ( 0.000000000000000000, 0.000000000000000000, 7.500000000000000000 ) ) ;
#286 = ORIENTED_EDGE ( 'NONE', *, *, #269, .F. ) ;
#287 = EDGE_CURVE ( 'NONE', #107, #296, #33, .T. ) ;
#288 = DIRECTION ( 'NONE',  ( -1.000000000000000000, 0.000000000000000000, 0.000000000000000000 ) ) ;
#289 = VECTOR ( 'NONE', #189, 1000.000000000000000 ) ;
#290 = DIRECTION ( 'NONE',  ( -1.000000000000000000, 0.000000000000000000, 0.000000000000000000 ) ) ;
#291 = ORIENTED_EDGE ( 'NONE', *, *, #230, .T. ) ;
#292 = ADVANCED_FACE ( 'NONE', ( #97, #400, #283 ), #250, .F. ) ;
#293 = PRESENTATION_STYLE_ASSIGNMENT (( #172 ) ) ;
#294 = ORIENTED_EDGE ( 'NONE', *, *, #156, .T. ) ;
#295 = FACE_OUTER_BOUND ( 'NONE', #260, .T. ) ;
#296 = VERTEX_POINT ( 'NONE', #69 ) ;
#297 = CARTESIAN_POINT ( 'NONE',  ( -2.000000000000000000, 3.000000000000000000, -4.000000000000000000 ) ) ;
#298 = EDGE_CURVE ( 'NONE', #155, #202, #196, .T. ) ;
#299 = VECTOR ( 'NONE', #349, 1000.000000000000000 ) ;
#300 = CARTESIAN_POINT ( 'NONE',  ( 7.581415712957817021, 1.308233960450047155E-15, 7.500000000000000000 ) ) ;
#301 = LINE ( 'NONE', #89, #330 ) ;
#302 = VECTOR ( 'NONE', #329, 1000.000000000000000 ) ;
#303 = FACE_OUTER_BOUND ( 'NONE', #174, .T. ) ;
#304 = CIRCLE ( 'NONE', #347, 1.549999999999987166 ) ;
#305 =( GEOMETRIC_REPRESENTATION_CONTEXT ( 3 ) GLOBAL_UNCERTAINTY_ASSIGNED_CONTEXT ( ( #101 ) ) GLOBAL_UNIT_ASSIGNED_CONTEXT ( ( #48, #176, #140 ) ) REPRESENTATION_CONTEXT ( 'NONE', 'WORKASPACE' ) );
#306 = EDGE_CURVE ( 'NONE', #127, #130, #373, .T. ) ;
#307 = DIRECTION ( 'NONE',  ( -0.000000000000000000, -0.000000000000000000, -1.000000000000000000 ) ) ;
#308 = CARTESIAN_POINT ( 'NONE',  ( 0.000000000000000000, 0.000000000000000000, 7.500000000000000000 ) ) ;
#309 = FACE_OUTER_BOUND ( 'NONE', #390, .T. ) ;
#310 = EDGE_CURVE ( 'NONE', #296, #142, #154, .T. ) ;
#311 = AXIS2_PLACEMENT_3D ( 'NONE', #118, #316, #59 ) ;
#312 = CARTESIAN_POINT ( 'NONE',  ( 7.581415712957817910, -2.499999999999999556, -7.500000000000000000 ) ) ;
#313 = VERTEX_POINT ( 'NONE', #71 ) ;
#314 = DIRECTION ( 'NONE',  ( 1.000000000000000000, -0.000000000000000000, -0.000000000000000000 ) ) ;
#315 = ORIENTED_EDGE ( 'NONE', *, *, #36, .T. ) ;
#316 = DIRECTION ( 'NONE',  ( 0.000000000000000000, 0.000000000000000000, -1.000000000000000000 ) ) ;
#317 = ORIENTED_EDGE ( 'NONE', *, *, #218, .T. ) ;
#318 = VECTOR ( 'NONE', #339, 1000.000000000000000 ) ;
#319 = PLANE ( 'NONE',  #129 ) ;
#320 = CARTESIAN_POINT ( 'NONE',  ( 1.365481181049296074E-15, 3.000000000000000000, 4.000000000000000000 ) ) ;
#321 = DIRECTION ( 'NONE',  ( 1.000000000000000000, -0.000000000000000000, -0.000000000000000000 ) ) ;
#322 = DIRECTION ( 'NONE',  ( 1.000000000000000000, -0.000000000000000000, -0.000000000000000000 ) ) ;
#323 = EDGE_CURVE ( 'NONE', #155, #107, #42, .T. ) ;
#324 = CARTESIAN_POINT ( 'NONE',  ( -1.999999999999998224, -8.031832941093830058, 7.500000000000000000 ) ) ;
#325 = ORIENTED_EDGE ( 'NONE', *, *, #26, .T. ) ;
#326 = ORIENTED_EDGE ( 'NONE', *, *, #106, .F. ) ;
#327 = FILL_AREA_STYLE_COLOUR ( '', #266 ) ;
#328 = PRODUCT_DEFINITION_SHAPE ( 'NONE', 'NONE',  #52 ) ;
#329 = DIRECTION ( 'NONE',  ( 1.000000000000000000, -0.000000000000000000, -0.000000000000000000 ) ) ;
#330 = VECTOR ( 'NONE', #143, 1000.000000000000000 ) ;
#331 = CARTESIAN_POINT ( 'NONE',  ( -2.000000000000000000, 3.000000000000000000, 5.549999999999998934 ) ) ;
#332 = DIRECTION ( 'NONE',  ( 1.000000000000000000, -0.000000000000000000, -0.000000000000000000 ) ) ;
#333 = DIRECTION ( 'NONE',  ( 1.000000000000000000, 0.000000000000000000, 0.000000000000000000 ) ) ;
#334 = LINE ( 'NONE', #274, #80 ) ;
#335 = VECTOR ( 'NONE', #28, 1000.000000000000000 ) ;
#336 = DIRECTION ( 'NONE',  ( -1.000000000000000000, 0.000000000000000000, 0.000000000000000000 ) ) ;
#337 = CARTESIAN_POINT ( 'NONE',  ( 7.581415712957817021, 1.308233960450047155E-15, 7.500000000000000000 ) ) ;
#338 = DIRECTION ( 'NONE',  ( 1.000000000000000000, -0.000000000000000000, -0.000000000000000000 ) ) ;
#339 = DIRECTION ( 'NONE',  ( 0.000000000000000000, 1.000000000000000000, 0.000000000000000000 ) ) ;
#340 = CARTESIAN_POINT ( 'NONE',  ( 0.000000000000000000, 6.000000000000000000, 7.500000000000000000 ) ) ;
#341 = ORIENTED_EDGE ( 'NONE', *, *, #287, .T. ) ;
#342 = CARTESIAN_POINT ( 'NONE',  ( 1.365481181049296074E-15, 3.000000000000000000, -2.450000000000013056 ) ) ;
#343 = VERTEX_POINT ( 'NONE', #137 ) ;
#344 = EDGE_CURVE ( 'NONE', #380, #17, #195, .T. ) ;
#345 = DIRECTION ( 'NONE',  ( 0.000000000000000000, 0.000000000000000000, 1.000000000000000000 ) ) ;
#346 = VERTEX_POINT ( 'NONE', #13 ) ;
#347 = AXIS2_PLACEMENT_3D ( 'NONE', #320, #160, #63 ) ;
#348 = MECHANICAL_DESIGN_GEOMETRIC_PRESENTATION_REPRESENTATION (  '', ( #364 ), #305 ) ;
#349 = DIRECTION ( 'NONE',  ( 0.8660254037844415942, 0.4999999999999949485, 0.000000000000000000 ) ) ;
#350 = VERTEX_POINT ( 'NONE', #205 ) ;
#351 = LINE ( 'NONE', #200, #229 ) ;
#352 = EDGE_CURVE ( 'NONE', #107, #343, #351, .T. ) ;
#353 = EDGE_LOOP ( 'NONE', ( #234, #228, #41, #159 ) ) ;
#354 = CARTESIAN_POINT ( 'NONE',  ( 0.000000000000000000, 6.000000000000000000, 7.500000000000000000 ) ) ;
#355 = ORIENTED_EDGE ( 'NONE', *, *, #230, .F. ) ;
#356 = AXIS2_PLACEMENT_3D ( 'NONE', #297, #388, #110 ) ;
#357 = EDGE_LOOP ( 'NONE', ( #5, #46, #70, #247 ) ) ;
#358 = CYLINDRICAL_SURFACE ( 'NONE', #398, 1.549999999999993161 ) ;
#359 = ORIENTED_EDGE ( 'NONE', *, *, #31, .T. ) ;
#360 = CARTESIAN_POINT ( 'NONE',  ( -1.999999999999998224, -8.031832941093830058, 7.500000000000000000 ) ) ;
#361 = ORIENTED_EDGE ( 'NONE', *, *, #121, .F. ) ;
#362 = VECTOR ( 'NONE', #314, 1000.000000000000000 ) ;
#363 = CARTESIAN_POINT ( 'NONE',  ( 0.000000000000000000, 6.000000000000000000, 7.500000000000000000 ) ) ;
#364 = STYLED_ITEM ( 'NONE', ( #293 ), #381 ) ;
#365 = PLANE ( 'NONE',  #264 ) ;
#366 = ADVANCED_FACE ( 'NONE', ( #231 ), #358, .F. ) ;
#367 = PLANE ( 'NONE',  #236 ) ;
#368 = CARTESIAN_POINT ( 'NONE',  ( 1.365481181049296074E-15, 3.000000000000000000, -4.000000000000000000 ) ) ;
#369 = AXIS2_PLACEMENT_3D ( 'NONE', #285, #288, #345 ) ;
#370 = ADVANCED_FACE ( 'NONE', ( #295 ), #233, .F. ) ;
#371 = DIRECTION ( 'NONE',  ( 0.000000000000000000, 0.000000000000000000, -1.000000000000000000 ) ) ;
#372 = LINE ( 'NONE', #215, #299 ) ;
#373 = LINE ( 'NONE', #217, #289 ) ;
#374 = ORIENTED_EDGE ( 'NONE', *, *, #352, .F. ) ;
#375 = LINE ( 'NONE', #32, #216 ) ;
#376 = EDGE_LOOP ( 'NONE', ( #188, #326, #286, #43, #72, #11 ) ) ;
#377 = EDGE_CURVE ( 'NONE', #17, #380, #113, .T. ) ;
#378 = DIRECTION ( 'NONE',  ( 1.236277172953271450E-16, -1.000000000000000000, 0.000000000000000000 ) ) ;
#379 = FACE_OUTER_BOUND ( 'NONE', #8, .T. ) ;
#380 = VERTEX_POINT ( 'NONE', #384 ) ;
#381 = MANIFOLD_SOLID_BREP ( 'Dégagement M2.51', #88 ) ;
#382 = CIRCLE ( 'NONE', #242, 1.549999999999987166 ) ;
#383 =( NAMED_UNIT ( * ) PLANE_ANGLE_UNIT ( ) SI_UNIT ( $, .RADIAN. ) );
#384 = CARTESIAN_POINT ( 'NONE',  ( -2.000000000000000000, 3.000000000000000000, 2.450000000000000622 ) ) ;
#385 = EDGE_LOOP ( 'NONE', ( #94, #268 ) ) ;
#386 = ORIENTED_EDGE ( 'NONE', *, *, #323, .T. ) ;
#387 = CARTESIAN_POINT ( 'NONE',  ( -2.000000000000000000, 3.000000000000000000, 4.000000000000000000 ) ) ;
#388 = DIRECTION ( 'NONE',  ( 1.000000000000000000, -0.000000000000000000, -0.000000000000000000 ) ) ;
#389 = DIRECTION ( 'NONE',  ( 0.8660254037844415942, 0.4999999999999949485, 0.000000000000000000 ) ) ;
#390 = EDGE_LOOP ( 'NONE', ( #325, #64, #386, #341, #37, #133 ) ) ;
#391 = DIRECTION ( 'NONE',  ( -1.000000000000000000, -1.725580036739144170E-16, 0.000000000000000000 ) ) ;
#392 = VECTOR ( 'NONE', #115, 1000.000000000000000 ) ;
#393 = EDGE_CURVE ( 'NONE', #296, #313, #267, .T. ) ;
#394 = DIRECTION ( 'NONE',  ( 0.000000000000000000, -1.000000000000000000, 0.000000000000000000 ) ) ;
#395 = CARTESIAN_POINT ( 'NONE',  ( 0.000000000000000000, 0.000000000000000000, 7.500000000000000000 ) ) ;
#396 = PLANE ( 'NONE',  #311 ) ;
#397 = CARTESIAN_POINT ( 'NONE',  ( 0.000000000000000000, 3.000000000000000000, 4.000000000000000000 ) ) ;
#398 = AXIS2_PLACEMENT_3D ( 'NONE', #77, #170, #203 ) ;
#399 = CARTESIAN_POINT ( 'NONE',  ( -1.999999999999998224, -8.031832941093830058, -7.500000000000000000 ) ) ;
#400 = FACE_BOUND ( 'NONE', #385, .T. ) ;
#401 = ORIENTED_EDGE ( 'NONE', *, *, #298, .T. ) ;
ENDSEC;
END-ISO-10303-21;
