ISO-10303-21;
HEADER;
/* Generated by software containing ST-Developer
 * from STEP Tools, Inc. (www.steptools.com) 
 */
/* OPTION: using custom renumber hook */

FILE_DESCRIPTION(
/* description */ ('STEP AP242',
'CAx-IF Rec.Pracs.---Representation and Presentation of Product Manufa
cturing Information (PMI)---4.0---2014-10-13',
'CAx-IF Rec.Pracs.---3D Tessellated Geometry---0.4---2014-09-14','2;1'),

/* implementation_level */ '2;1');

FILE_NAME(
/* name */ '642c2ef051c78202154ae67b',
/* time_stamp */ '2023-04-04T14:06:40+00:00',
/* author */ (''),
/* organization */ (''),
/* preprocessor_version */ 'ST-DEVELOPER v18.102',
/* originating_system */ '  ',
/* authorisation */ '  ');

FILE_SCHEMA (('AP242_MANAGED_MODEL_BASED_3D_ENGINEERING_MIM_LF { 1 0 10303 442 1 1 4 }'));
ENDSEC;

DATA;
#10=SHAPE_REPRESENTATION_RELATIONSHIP('','',#209,#11);
#11=ADVANCED_BREP_SHAPE_REPRESENTATION('',(#207),#347);
#12=PLANE('',#220);
#13=PLANE('',#221);
#14=PLANE('',#222);
#15=PLANE('',#223);
#16=PLANE('',#225);
#17=PLANE('',#231);
#18=PLANE('',#232);
#19=LINE('',#298,#33);
#20=LINE('',#302,#34);
#21=LINE('',#309,#35);
#22=LINE('',#314,#36);
#23=LINE('',#318,#37);
#24=LINE('',#320,#38);
#25=LINE('',#322,#39);
#26=LINE('',#323,#40);
#27=LINE('',#325,#41);
#28=LINE('',#327,#42);
#29=LINE('',#329,#43);
#30=LINE('',#331,#44);
#31=LINE('',#332,#45);
#32=LINE('',#333,#46);
#33=VECTOR('',#239,1.);
#34=VECTOR('',#242,1.);
#35=VECTOR('',#251,1.);
#36=VECTOR('',#254,1.);
#37=VECTOR('',#259,1.);
#38=VECTOR('',#260,1.);
#39=VECTOR('',#261,1.);
#40=VECTOR('',#262,1.);
#41=VECTOR('',#265,1.);
#42=VECTOR('',#266,1.);
#43=VECTOR('',#267,1.);
#44=VECTOR('',#270,1.);
#45=VECTOR('',#271,1.);
#46=VECTOR('',#272,1.);
#47=ORIENTED_EDGE('',*,*,#95,.F.);
#48=ORIENTED_EDGE('',*,*,#96,.T.);
#49=ORIENTED_EDGE('',*,*,#97,.T.);
#50=ORIENTED_EDGE('',*,*,#98,.F.);
#51=ORIENTED_EDGE('',*,*,#99,.F.);
#52=ORIENTED_EDGE('',*,*,#100,.F.);
#53=ORIENTED_EDGE('',*,*,#101,.T.);
#54=ORIENTED_EDGE('',*,*,#102,.T.);
#55=ORIENTED_EDGE('',*,*,#103,.F.);
#56=ORIENTED_EDGE('',*,*,#104,.F.);
#57=ORIENTED_EDGE('',*,*,#105,.T.);
#58=ORIENTED_EDGE('',*,*,#106,.F.);
#59=ORIENTED_EDGE('',*,*,#107,.F.);
#60=ORIENTED_EDGE('',*,*,#103,.T.);
#61=ORIENTED_EDGE('',*,*,#108,.T.);
#62=ORIENTED_EDGE('',*,*,#98,.T.);
#63=ORIENTED_EDGE('',*,*,#109,.T.);
#64=ORIENTED_EDGE('',*,*,#110,.F.);
#65=ORIENTED_EDGE('',*,*,#111,.F.);
#66=ORIENTED_EDGE('',*,*,#106,.T.);
#67=ORIENTED_EDGE('',*,*,#112,.T.);
#68=ORIENTED_EDGE('',*,*,#96,.F.);
#69=ORIENTED_EDGE('',*,*,#113,.F.);
#70=ORIENTED_EDGE('',*,*,#101,.F.);
#71=ORIENTED_EDGE('',*,*,#114,.F.);
#72=ORIENTED_EDGE('',*,*,#110,.T.);
#73=ORIENTED_EDGE('',*,*,#115,.F.);
#74=ORIENTED_EDGE('',*,*,#104,.T.);
#75=ORIENTED_EDGE('',*,*,#107,.T.);
#76=ORIENTED_EDGE('',*,*,#111,.T.);
#77=ORIENTED_EDGE('',*,*,#114,.T.);
#78=ORIENTED_EDGE('',*,*,#99,.T.);
#79=ORIENTED_EDGE('',*,*,#97,.F.);
#80=ORIENTED_EDGE('',*,*,#112,.F.);
#81=ORIENTED_EDGE('',*,*,#109,.F.);
#82=ORIENTED_EDGE('',*,*,#105,.F.);
#83=ORIENTED_EDGE('',*,*,#116,.T.);
#84=ORIENTED_EDGE('',*,*,#115,.T.);
#85=ORIENTED_EDGE('',*,*,#117,.T.);
#86=ORIENTED_EDGE('',*,*,#113,.T.);
#87=ORIENTED_EDGE('',*,*,#118,.F.);
#88=ORIENTED_EDGE('',*,*,#108,.F.);
#89=ORIENTED_EDGE('',*,*,#118,.T.);
#90=ORIENTED_EDGE('',*,*,#95,.T.);
#91=ORIENTED_EDGE('',*,*,#100,.T.);
#92=ORIENTED_EDGE('',*,*,#117,.F.);
#93=ORIENTED_EDGE('',*,*,#102,.F.);
#94=ORIENTED_EDGE('',*,*,#116,.F.);
#95=EDGE_CURVE('',#119,#120,#135,.T.);
#96=EDGE_CURVE('',#119,#121,#19,.T.);
#97=EDGE_CURVE('',#121,#122,#136,.T.);
#98=EDGE_CURVE('',#120,#122,#20,.T.);
#99=EDGE_CURVE('',#123,#123,#137,.T.);
#100=EDGE_CURVE('',#124,#124,#138,.F.);
#101=EDGE_CURVE('',#125,#126,#21,.T.);
#102=EDGE_CURVE('',#126,#127,#139,.T.);
#103=EDGE_CURVE('',#128,#127,#22,.T.);
#104=EDGE_CURVE('',#125,#128,#140,.T.);
#105=EDGE_CURVE('',#122,#129,#23,.T.);
#106=EDGE_CURVE('',#130,#129,#24,.T.);
#107=EDGE_CURVE('',#128,#130,#25,.T.);
#108=EDGE_CURVE('',#127,#120,#26,.F.);
#109=EDGE_CURVE('',#129,#131,#27,.T.);
#110=EDGE_CURVE('',#132,#131,#28,.T.);
#111=EDGE_CURVE('',#130,#132,#29,.T.);
#112=EDGE_CURVE('',#131,#121,#30,.T.);
#113=EDGE_CURVE('',#126,#119,#31,.T.);
#114=EDGE_CURVE('',#132,#125,#32,.T.);
#115=EDGE_CURVE('',#133,#133,#141,.T.);
#116=EDGE_CURVE('',#134,#134,#142,.F.);
#117=EDGE_CURVE('',#127,#126,#143,.T.);
#118=EDGE_CURVE('',#120,#119,#144,.T.);
#119=VERTEX_POINT('',#296);
#120=VERTEX_POINT('',#297);
#121=VERTEX_POINT('',#299);
#122=VERTEX_POINT('',#301);
#123=VERTEX_POINT('',#305);
#124=VERTEX_POINT('',#307);
#125=VERTEX_POINT('',#310);
#126=VERTEX_POINT('',#311);
#127=VERTEX_POINT('',#313);
#128=VERTEX_POINT('',#315);
#129=VERTEX_POINT('',#319);
#130=VERTEX_POINT('',#321);
#131=VERTEX_POINT('',#326);
#132=VERTEX_POINT('',#328);
#133=VERTEX_POINT('',#336);
#134=VERTEX_POINT('',#340);
#135=CIRCLE('',#212,0.01);
#136=CIRCLE('',#213,0.01);
#137=CIRCLE('',#215,0.004);
#138=CIRCLE('',#216,0.004);
#139=CIRCLE('',#218,0.01);
#140=CIRCLE('',#219,0.01);
#141=CIRCLE('',#224,0.004);
#142=CIRCLE('',#227,0.004);
#143=CIRCLE('',#229,0.01);
#144=CIRCLE('',#230,0.01);
#145=EDGE_LOOP('',(#47,#48,#49,#50));
#146=EDGE_LOOP('',(#51));
#147=EDGE_LOOP('',(#52));
#148=EDGE_LOOP('',(#53,#54,#55,#56));
#149=EDGE_LOOP('',(#57,#58,#59,#60,#61,#62));
#150=EDGE_LOOP('',(#63,#64,#65,#66));
#151=EDGE_LOOP('',(#67,#68,#69,#70,#71,#72));
#152=EDGE_LOOP('',(#73));
#153=EDGE_LOOP('',(#74,#75,#76,#77));
#154=EDGE_LOOP('',(#78));
#155=EDGE_LOOP('',(#79,#80,#81,#82));
#156=EDGE_LOOP('',(#83));
#157=EDGE_LOOP('',(#84));
#158=EDGE_LOOP('',(#85,#86,#87,#88));
#159=EDGE_LOOP('',(#89,#90));
#160=EDGE_LOOP('',(#91));
#161=EDGE_LOOP('',(#92,#93));
#162=EDGE_LOOP('',(#94));
#163=FACE_BOUND('',#145,.T.);
#164=FACE_BOUND('',#146,.T.);
#165=FACE_BOUND('',#147,.T.);
#166=FACE_BOUND('',#148,.T.);
#167=FACE_BOUND('',#149,.T.);
#168=FACE_BOUND('',#150,.T.);
#169=FACE_BOUND('',#151,.T.);
#170=FACE_BOUND('',#152,.T.);
#171=FACE_BOUND('',#153,.T.);
#172=FACE_BOUND('',#154,.T.);
#173=FACE_BOUND('',#155,.T.);
#174=FACE_BOUND('',#156,.T.);
#175=FACE_BOUND('',#157,.T.);
#176=FACE_BOUND('',#158,.T.);
#177=FACE_BOUND('',#159,.T.);
#178=FACE_BOUND('',#160,.T.);
#179=FACE_BOUND('',#161,.T.);
#180=FACE_BOUND('',#162,.T.);
#181=CYLINDRICAL_SURFACE('',#211,0.01);
#182=CYLINDRICAL_SURFACE('',#214,0.004);
#183=CYLINDRICAL_SURFACE('',#217,0.01);
#184=CYLINDRICAL_SURFACE('',#226,0.004);
#185=CYLINDRICAL_SURFACE('',#228,0.01);
#186=ADVANCED_FACE('',(#163),#181,.T.);
#187=ADVANCED_FACE('',(#164,#165),#182,.F.);
#188=ADVANCED_FACE('',(#166),#183,.T.);
#189=ADVANCED_FACE('',(#167),#12,.F.);
#190=ADVANCED_FACE('',(#168),#13,.F.);
#191=ADVANCED_FACE('',(#169),#14,.F.);
#192=ADVANCED_FACE('',(#170,#171),#15,.T.);
#193=ADVANCED_FACE('',(#172,#173),#16,.F.);
#194=ADVANCED_FACE('',(#174,#175),#184,.F.);
#195=ADVANCED_FACE('',(#176),#185,.F.);
#196=ADVANCED_FACE('',(#177,#178),#17,.T.);
#197=ADVANCED_FACE('',(#179,#180),#18,.F.);
#198=CLOSED_SHELL('',(#186,#187,#188,#189,#190,#191,#192,#193,#194,#195,
#196,#197));
#199=STYLED_ITEM('',(#200),#207);
#200=PRESENTATION_STYLE_ASSIGNMENT((#201));
#201=SURFACE_STYLE_USAGE(.BOTH.,#202);
#202=SURFACE_SIDE_STYLE('',(#203));
#203=SURFACE_STYLE_FILL_AREA(#204);
#204=FILL_AREA_STYLE('',(#205));
#205=FILL_AREA_STYLE_COLOUR('',#206);
#206=COLOUR_RGB('',0.792156862745098,0.819607843137255,0.933333333333333);
#207=MANIFOLD_SOLID_BREP('Part 1',#198);
#208=SHAPE_DEFINITION_REPRESENTATION(#352,#209);
#209=SHAPE_REPRESENTATION('Part 1',(#210),#347);
#210=AXIS2_PLACEMENT_3D('',#293,#233,#234);
#211=AXIS2_PLACEMENT_3D('',#294,#235,#236);
#212=AXIS2_PLACEMENT_3D('',#295,#237,#238);
#213=AXIS2_PLACEMENT_3D('',#300,#240,#241);
#214=AXIS2_PLACEMENT_3D('',#303,#243,#244);
#215=AXIS2_PLACEMENT_3D('',#304,#245,#246);
#216=AXIS2_PLACEMENT_3D('',#306,#247,#248);
#217=AXIS2_PLACEMENT_3D('',#308,#249,#250);
#218=AXIS2_PLACEMENT_3D('',#312,#252,#253);
#219=AXIS2_PLACEMENT_3D('',#316,#255,#256);
#220=AXIS2_PLACEMENT_3D('',#317,#257,#258);
#221=AXIS2_PLACEMENT_3D('',#324,#263,#264);
#222=AXIS2_PLACEMENT_3D('',#330,#268,#269);
#223=AXIS2_PLACEMENT_3D('',#334,#273,#274);
#224=AXIS2_PLACEMENT_3D('',#335,#275,#276);
#225=AXIS2_PLACEMENT_3D('',#337,#277,#278);
#226=AXIS2_PLACEMENT_3D('',#338,#279,#280);
#227=AXIS2_PLACEMENT_3D('',#339,#281,#282);
#228=AXIS2_PLACEMENT_3D('',#341,#283,#284);
#229=AXIS2_PLACEMENT_3D('',#342,#285,#286);
#230=AXIS2_PLACEMENT_3D('',#343,#287,#288);
#231=AXIS2_PLACEMENT_3D('',#344,#289,#290);
#232=AXIS2_PLACEMENT_3D('',#345,#291,#292);
#233=DIRECTION('',(0.,0.,1.));
#234=DIRECTION('',(1.,0.,0.));
#235=DIRECTION('',(0.,1.,0.));
#236=DIRECTION('',(-1.,0.,0.));
#237=DIRECTION('',(0.,-1.,0.));
#238=DIRECTION('',(1.,0.,0.));
#239=DIRECTION('',(0.,1.,0.));
#240=DIRECTION('',(0.,-1.,0.));
#241=DIRECTION('',(1.,0.,0.));
#242=DIRECTION('',(0.,1.,0.));
#243=DIRECTION('',(0.,-1.,0.));
#244=DIRECTION('',(1.,0.,0.));
#245=DIRECTION('',(0.,-1.,0.));
#246=DIRECTION('',(1.,0.,0.));
#247=DIRECTION('',(0.,-1.,0.));
#248=DIRECTION('',(1.,0.,0.));
#249=DIRECTION('',(0.,1.,0.));
#250=DIRECTION('',(-1.,0.,0.));
#251=DIRECTION('',(0.,1.,0.));
#252=DIRECTION('',(0.,-1.,0.));
#253=DIRECTION('',(1.,0.,0.));
#254=DIRECTION('',(0.,1.,0.));
#255=DIRECTION('',(0.,-1.,0.));
#256=DIRECTION('',(1.,0.,0.));
#257=DIRECTION('',(-0.173648177666924,0.,0.984807753012209));
#258=DIRECTION('',(-0.984807753012209,0.,-0.173648177666924));
#259=DIRECTION('',(0.984807753012209,0.,0.173648177666924));
#260=DIRECTION('',(0.,1.,0.));
#261=DIRECTION('',(0.984807753012209,0.,0.173648177666924));
#262=DIRECTION('',(0.,-1.,0.));
#263=DIRECTION('',(-1.,0.,0.));
#264=DIRECTION('',(0.,-1.,0.));
#265=DIRECTION('',(0.,0.,1.));
#266=DIRECTION('',(0.,1.,0.));
#267=DIRECTION('',(0.,0.,1.));
#268=DIRECTION('',(0.,0.,-1.));
#269=DIRECTION('',(0.,1.,0.));
#270=DIRECTION('',(-1.,0.,0.));
#271=DIRECTION('',(0.,1.,0.));
#272=DIRECTION('',(-1.,0.,0.));
#273=DIRECTION('',(0.,-1.,0.));
#274=DIRECTION('',(1.,0.,0.));
#275=DIRECTION('',(0.,-1.,0.));
#276=DIRECTION('',(1.,0.,0.));
#277=DIRECTION('',(0.,-1.,0.));
#278=DIRECTION('',(1.,0.,0.));
#279=DIRECTION('',(0.,-1.,0.));
#280=DIRECTION('',(1.,0.,0.));
#281=DIRECTION('',(0.,-1.,0.));
#282=DIRECTION('',(1.,0.,0.));
#283=DIRECTION('',(0.,-1.,0.));
#284=DIRECTION('',(1.,0.,0.));
#285=DIRECTION('',(0.,-1.,0.));
#286=DIRECTION('',(1.,0.,0.));
#287=DIRECTION('',(0.,-1.,0.));
#288=DIRECTION('',(1.,0.,0.));
#289=DIRECTION('',(0.,-1.,0.));
#290=DIRECTION('',(1.,0.,0.));
#291=DIRECTION('',(0.,-1.,0.));
#292=DIRECTION('',(1.,0.,0.));
#293=CARTESIAN_POINT('',(0.,0.,0.));
#294=CARTESIAN_POINT('',(0.,-0.01,-0.01));
#295=CARTESIAN_POINT('',(0.,0.005,-0.01));
#296=CARTESIAN_POINT('',(0.,0.005,0.));
#297=CARTESIAN_POINT('',(0.00999008614947848,0.005,-0.00955482730766798));
#298=CARTESIAN_POINT('',(0.,-0.01,0.));
#299=CARTESIAN_POINT('',(0.,0.01,0.));
#300=CARTESIAN_POINT('',(0.,0.01,-0.01));
#301=CARTESIAN_POINT('',(0.00999008614947848,0.01,-0.00955482730766797));
#302=CARTESIAN_POINT('',(0.00999008614947848,-0.01,-0.00955482730766797));
#303=CARTESIAN_POINT('',(0.001,0.01,-0.00894427190999916));
#304=CARTESIAN_POINT('',(0.001,0.01,-0.00894427190999916));
#305=CARTESIAN_POINT('',(0.005,0.01,-0.00894427190999916));
#306=CARTESIAN_POINT('',(0.001,0.005,-0.00894427190999916));
#307=CARTESIAN_POINT('',(0.005,0.005,-0.00894427190999916));
#308=CARTESIAN_POINT('',(0.,-0.01,-0.01));
#309=CARTESIAN_POINT('',(0.,-0.01,0.));
#310=CARTESIAN_POINT('',(0.,-0.01,0.));
#311=CARTESIAN_POINT('',(0.,-0.005,0.));
#312=CARTESIAN_POINT('',(0.,-0.005,-0.01));
#313=CARTESIAN_POINT('',(0.00999008614947848,-0.005,-0.00955482730766798));
#314=CARTESIAN_POINT('',(0.00999008614947848,-0.01,-0.00955482730766797));
#315=CARTESIAN_POINT('',(0.00999008614947848,-0.01,-0.00955482730766797));
#316=CARTESIAN_POINT('',(0.,-0.01,-0.01));
#317=CARTESIAN_POINT('',(0.05,-0.01,-0.0025));
#318=CARTESIAN_POINT('',(0.05,0.01,-0.0025));
#319=CARTESIAN_POINT('',(0.05,0.01,-0.0025));
#320=CARTESIAN_POINT('',(0.05,-0.01,-0.0025));
#321=CARTESIAN_POINT('',(0.05,-0.01,-0.0025));
#322=CARTESIAN_POINT('',(0.05,-0.01,-0.0025));
#323=CARTESIAN_POINT('',(0.00999008614947848,0.005,-0.00955482730766798));
#324=CARTESIAN_POINT('',(0.05,-0.01,0.));
#325=CARTESIAN_POINT('',(0.05,0.01,0.));
#326=CARTESIAN_POINT('',(0.05,0.01,0.));
#327=CARTESIAN_POINT('',(0.05,-0.01,0.));
#328=CARTESIAN_POINT('',(0.05,-0.01,0.));
#329=CARTESIAN_POINT('',(0.05,-0.01,0.));
#330=CARTESIAN_POINT('',(0.,-0.01,0.));
#331=CARTESIAN_POINT('',(0.,0.01,0.));
#332=CARTESIAN_POINT('',(0.,-0.01,0.));
#333=CARTESIAN_POINT('',(0.,-0.01,0.));
#334=CARTESIAN_POINT('',(0.,-0.01,-0.01));
#335=CARTESIAN_POINT('',(0.001,-0.01,-0.00894427190999916));
#336=CARTESIAN_POINT('',(0.005,-0.01,-0.00894427190999916));
#337=CARTESIAN_POINT('',(0.,0.01,-0.01));
#338=CARTESIAN_POINT('',(0.001,0.01,-0.00894427190999916));
#339=CARTESIAN_POINT('',(0.001,-0.005,-0.00894427190999916));
#340=CARTESIAN_POINT('',(0.005,-0.005,-0.00894427190999916));
#341=CARTESIAN_POINT('',(0.,0.005,-0.01));
#342=CARTESIAN_POINT('',(0.,-0.005,-0.01));
#343=CARTESIAN_POINT('',(0.,0.005,-0.01));
#344=CARTESIAN_POINT('',(0.,0.005,-0.01));
#345=CARTESIAN_POINT('',(0.,-0.005,-0.01));
#346=MECHANICAL_DESIGN_GEOMETRIC_PRESENTATION_REPRESENTATION('',(#199),
#347);
#347=(
GEOMETRIC_REPRESENTATION_CONTEXT(3)
GLOBAL_UNCERTAINTY_ASSIGNED_CONTEXT((#348))
GLOBAL_UNIT_ASSIGNED_CONTEXT((#351,#350,#349))
REPRESENTATION_CONTEXT('Part 1','TOP_LEVEL_ASSEMBLY_PART')
);
#348=UNCERTAINTY_MEASURE_WITH_UNIT(LENGTH_MEASURE(5.E-6),#351,
'DISTANCE_ACCURACY_VALUE','Maximum Tolerance applied to model');
#349=(
NAMED_UNIT(*)
SI_UNIT($,.STERADIAN.)
SOLID_ANGLE_UNIT()
);
#350=(
NAMED_UNIT(*)
PLANE_ANGLE_UNIT()
SI_UNIT($,.RADIAN.)
);
#351=(
LENGTH_UNIT()
NAMED_UNIT(*)
SI_UNIT($,.METRE.)
);
#352=PRODUCT_DEFINITION_SHAPE('','',#353);
#353=PRODUCT_DEFINITION('','',#355,#354);
#354=PRODUCT_DEFINITION_CONTEXT('',#361,'design');
#355=PRODUCT_DEFINITION_FORMATION_WITH_SPECIFIED_SOURCE('','',#357,
 .NOT_KNOWN.);
#356=PRODUCT_RELATED_PRODUCT_CATEGORY('','',(#357));
#357=PRODUCT('Part 1','Part 1','Part 1',(#359));
#358=PRODUCT_CATEGORY('','');
#359=PRODUCT_CONTEXT('',#361,'mechanical');
#360=APPLICATION_PROTOCOL_DEFINITION('international standard',
'ap242_managed_model_based_3d_engineering',2011,#361);
#361=APPLICATION_CONTEXT('managed model based 3d engineering');
ENDSEC;
END-ISO-10303-21;
