ISO-10303-21;
HEADER;
/* Generated by software containing ST-Developer
 * from STEP Tools, Inc. (www.steptools.com) 
 */

FILE_DESCRIPTION(
/* description */ (''),
/* implementation_level */ '2;1');

FILE_NAME(
/* name */ 'Colonette v1.step',
/* time_stamp */ '2023-04-24T09:08:11+02:00',
/* author */ (''),
/* organization */ (''),
/* preprocessor_version */ 'ST-DEVELOPER v19.2',
/* originating_system */ 'Autodesk Translation Framework v12.4.0.73',
/* authorisation */ '');

FILE_SCHEMA (('AUTOMOTIVE_DESIGN { 1 0 10303 214 3 1 1 }'));
ENDSEC;

DATA;
#10=MECHANICAL_DESIGN_GEOMETRIC_PRESENTATION_REPRESENTATION('',(#17),#442);
#11=ITEM_DEFINED_TRANSFORMATION($,$,#252,#285);
#12=(
REPRESENTATION_RELATIONSHIP($,$,#453,#452)
REPRESENTATION_RELATIONSHIP_WITH_TRANSFORMATION(#11)
SHAPE_REPRESENTATION_RELATIONSHIP()
);
#13=CONTEXT_DEPENDENT_SHAPE_REPRESENTATION(#12,#451);
#14=NEXT_ASSEMBLY_USAGE_OCCURRENCE('Composant1:1','Composant1:1',
'Composant1:1',#455,#456,'Composant1:1');
#15=SHAPE_REPRESENTATION_RELATIONSHIP('SRR','None',#453,#16);
#16=ADVANCED_BREP_SHAPE_REPRESENTATION('',(#18),#441);
#17=STYLED_ITEM('',(#466),#18);
#18=MANIFOLD_SOLID_BREP('Corps1',#238);
#19=TOROIDAL_SURFACE('',#265,7.75000259115598,1.75000259115791);
#20=TOROIDAL_SURFACE('',#273,7.5000023215421,1.5000023215421);
#21=FACE_BOUND('',#49,.T.);
#22=FACE_BOUND('',#58,.T.);
#23=FACE_BOUND('',#61,.T.);
#24=PLANE('',#256);
#25=PLANE('',#258);
#26=PLANE('',#259);
#27=PLANE('',#264);
#28=PLANE('',#277);
#29=PLANE('',#280);
#30=PLANE('',#284);
#31=FACE_OUTER_BOUND('',#45,.T.);
#32=FACE_OUTER_BOUND('',#46,.T.);
#33=FACE_OUTER_BOUND('',#47,.T.);
#34=FACE_OUTER_BOUND('',#48,.T.);
#35=FACE_OUTER_BOUND('',#50,.T.);
#36=FACE_OUTER_BOUND('',#51,.T.);
#37=FACE_OUTER_BOUND('',#52,.T.);
#38=FACE_OUTER_BOUND('',#53,.T.);
#39=FACE_OUTER_BOUND('',#54,.T.);
#40=FACE_OUTER_BOUND('',#55,.T.);
#41=FACE_OUTER_BOUND('',#56,.T.);
#42=FACE_OUTER_BOUND('',#57,.T.);
#43=FACE_OUTER_BOUND('',#59,.T.);
#44=FACE_OUTER_BOUND('',#60,.T.);
#45=EDGE_LOOP('',(#157,#158,#159,#160));
#46=EDGE_LOOP('',(#161,#162));
#47=EDGE_LOOP('',(#163,#164,#165,#166,#167,#168));
#48=EDGE_LOOP('',(#169,#170,#171,#172));
#49=EDGE_LOOP('',(#173));
#50=EDGE_LOOP('',(#174,#175,#176,#177));
#51=EDGE_LOOP('',(#178,#179,#180,#181));
#52=EDGE_LOOP('',(#182,#183,#184,#185,#186));
#53=EDGE_LOOP('',(#187,#188,#189,#190,#191,#192));
#54=EDGE_LOOP('',(#193,#194,#195,#196,#197,#198,#199));
#55=EDGE_LOOP('',(#200,#201,#202,#203,#204,#205,#206));
#56=EDGE_LOOP('',(#207,#208,#209,#210));
#57=EDGE_LOOP('',(#211));
#58=EDGE_LOOP('',(#212));
#59=EDGE_LOOP('',(#213,#214,#215,#216));
#60=EDGE_LOOP('',(#217));
#61=EDGE_LOOP('',(#218));
#62=LINE('',#375,#75);
#63=LINE('',#381,#76);
#64=LINE('',#385,#77);
#65=LINE('',#387,#78);
#66=LINE('',#388,#79);
#67=LINE('',#390,#80);
#68=LINE('',#391,#81);
#69=LINE('',#396,#82);
#70=LINE('',#401,#83);
#71=LINE('',#404,#84);
#72=LINE('',#405,#85);
#73=LINE('',#418,#86);
#74=LINE('',#434,#87);
#75=VECTOR('',#294,2.5);
#76=VECTOR('',#301,10.);
#77=VECTOR('',#304,10.);
#78=VECTOR('',#305,10.);
#79=VECTOR('',#306,10.);
#80=VECTOR('',#307,10.);
#81=VECTOR('',#308,10.);
#82=VECTOR('',#313,10.);
#83=VECTOR('',#320,10.);
#84=VECTOR('',#323,10.);
#85=VECTOR('',#324,10.);
#86=VECTOR('',#339,6.);
#87=VECTOR('',#364,9.5);
#88=CIRCLE('',#254,2.117);
#89=CIRCLE('',#255,2.117);
#90=CIRCLE('',#257,7.5);
#91=CIRCLE('',#260,9.);
#92=CIRCLE('',#261,9.);
#93=CIRCLE('',#263,9.);
#94=CIRCLE('',#266,7.75);
#95=CIRCLE('',#267,1.75000259115791);
#96=CIRCLE('',#268,5.99999999999807);
#97=CIRCLE('',#269,5.99999999999807);
#98=CIRCLE('',#271,6.);
#99=CIRCLE('',#272,6.);
#100=CIRCLE('',#274,1.5000023215421);
#101=CIRCLE('',#275,7.5);
#102=CIRCLE('',#276,7.5);
#103=CIRCLE('',#278,9.);
#104=CIRCLE('',#281,9.5);
#105=CIRCLE('',#283,9.5);
#106=VERTEX_POINT('',#372);
#107=VERTEX_POINT('',#374);
#108=VERTEX_POINT('',#378);
#109=VERTEX_POINT('',#379);
#110=VERTEX_POINT('',#383);
#111=VERTEX_POINT('',#384);
#112=VERTEX_POINT('',#386);
#113=VERTEX_POINT('',#389);
#114=VERTEX_POINT('',#393);
#115=VERTEX_POINT('',#395);
#116=VERTEX_POINT('',#399);
#117=VERTEX_POINT('',#403);
#118=VERTEX_POINT('',#407);
#119=VERTEX_POINT('',#409);
#120=VERTEX_POINT('',#411);
#121=VERTEX_POINT('',#415);
#122=VERTEX_POINT('',#416);
#123=VERTEX_POINT('',#421);
#124=VERTEX_POINT('',#429);
#125=VERTEX_POINT('',#432);
#126=EDGE_CURVE('',#106,#106,#88,.T.);
#127=EDGE_CURVE('',#106,#107,#62,.T.);
#128=EDGE_CURVE('',#107,#107,#89,.T.);
#129=EDGE_CURVE('',#108,#109,#90,.T.);
#130=EDGE_CURVE('',#108,#109,#63,.T.);
#131=EDGE_CURVE('',#110,#111,#64,.T.);
#132=EDGE_CURVE('',#112,#110,#65,.T.);
#133=EDGE_CURVE('',#108,#112,#66,.T.);
#134=EDGE_CURVE('',#113,#109,#67,.T.);
#135=EDGE_CURVE('',#111,#113,#68,.T.);
#136=EDGE_CURVE('',#111,#114,#91,.T.);
#137=EDGE_CURVE('',#114,#115,#69,.T.);
#138=EDGE_CURVE('',#115,#110,#92,.T.);
#139=EDGE_CURVE('',#113,#116,#93,.T.);
#140=EDGE_CURVE('',#116,#114,#70,.T.);
#141=EDGE_CURVE('',#117,#116,#71,.T.);
#142=EDGE_CURVE('',#115,#117,#72,.T.);
#143=EDGE_CURVE('',#118,#118,#94,.T.);
#144=EDGE_CURVE('',#118,#119,#95,.T.);
#145=EDGE_CURVE('',#120,#119,#96,.T.);
#146=EDGE_CURVE('',#119,#120,#97,.T.);
#147=EDGE_CURVE('',#121,#122,#98,.T.);
#148=EDGE_CURVE('',#121,#120,#73,.T.);
#149=EDGE_CURVE('',#122,#121,#99,.T.);
#150=EDGE_CURVE('',#122,#123,#100,.T.);
#151=EDGE_CURVE('',#109,#123,#101,.T.);
#152=EDGE_CURVE('',#123,#108,#102,.T.);
#153=EDGE_CURVE('',#117,#112,#103,.T.);
#154=EDGE_CURVE('',#124,#124,#104,.T.);
#155=EDGE_CURVE('',#125,#125,#105,.T.);
#156=EDGE_CURVE('',#125,#124,#74,.T.);
#157=ORIENTED_EDGE('',*,*,#126,.F.);
#158=ORIENTED_EDGE('',*,*,#127,.T.);
#159=ORIENTED_EDGE('',*,*,#128,.F.);
#160=ORIENTED_EDGE('',*,*,#127,.F.);
#161=ORIENTED_EDGE('',*,*,#129,.T.);
#162=ORIENTED_EDGE('',*,*,#130,.F.);
#163=ORIENTED_EDGE('',*,*,#131,.F.);
#164=ORIENTED_EDGE('',*,*,#132,.F.);
#165=ORIENTED_EDGE('',*,*,#133,.F.);
#166=ORIENTED_EDGE('',*,*,#130,.T.);
#167=ORIENTED_EDGE('',*,*,#134,.F.);
#168=ORIENTED_EDGE('',*,*,#135,.F.);
#169=ORIENTED_EDGE('',*,*,#131,.T.);
#170=ORIENTED_EDGE('',*,*,#136,.T.);
#171=ORIENTED_EDGE('',*,*,#137,.T.);
#172=ORIENTED_EDGE('',*,*,#138,.T.);
#173=ORIENTED_EDGE('',*,*,#126,.T.);
#174=ORIENTED_EDGE('',*,*,#135,.T.);
#175=ORIENTED_EDGE('',*,*,#139,.T.);
#176=ORIENTED_EDGE('',*,*,#140,.T.);
#177=ORIENTED_EDGE('',*,*,#136,.F.);
#178=ORIENTED_EDGE('',*,*,#137,.F.);
#179=ORIENTED_EDGE('',*,*,#140,.F.);
#180=ORIENTED_EDGE('',*,*,#141,.F.);
#181=ORIENTED_EDGE('',*,*,#142,.F.);
#182=ORIENTED_EDGE('',*,*,#143,.T.);
#183=ORIENTED_EDGE('',*,*,#144,.T.);
#184=ORIENTED_EDGE('',*,*,#145,.F.);
#185=ORIENTED_EDGE('',*,*,#146,.F.);
#186=ORIENTED_EDGE('',*,*,#144,.F.);
#187=ORIENTED_EDGE('',*,*,#147,.F.);
#188=ORIENTED_EDGE('',*,*,#148,.T.);
#189=ORIENTED_EDGE('',*,*,#145,.T.);
#190=ORIENTED_EDGE('',*,*,#146,.T.);
#191=ORIENTED_EDGE('',*,*,#148,.F.);
#192=ORIENTED_EDGE('',*,*,#149,.F.);
#193=ORIENTED_EDGE('',*,*,#147,.T.);
#194=ORIENTED_EDGE('',*,*,#150,.T.);
#195=ORIENTED_EDGE('',*,*,#151,.F.);
#196=ORIENTED_EDGE('',*,*,#129,.F.);
#197=ORIENTED_EDGE('',*,*,#152,.F.);
#198=ORIENTED_EDGE('',*,*,#150,.F.);
#199=ORIENTED_EDGE('',*,*,#149,.T.);
#200=ORIENTED_EDGE('',*,*,#134,.T.);
#201=ORIENTED_EDGE('',*,*,#151,.T.);
#202=ORIENTED_EDGE('',*,*,#152,.T.);
#203=ORIENTED_EDGE('',*,*,#133,.T.);
#204=ORIENTED_EDGE('',*,*,#153,.F.);
#205=ORIENTED_EDGE('',*,*,#141,.T.);
#206=ORIENTED_EDGE('',*,*,#139,.F.);
#207=ORIENTED_EDGE('',*,*,#132,.T.);
#208=ORIENTED_EDGE('',*,*,#138,.F.);
#209=ORIENTED_EDGE('',*,*,#142,.T.);
#210=ORIENTED_EDGE('',*,*,#153,.T.);
#211=ORIENTED_EDGE('',*,*,#154,.F.);
#212=ORIENTED_EDGE('',*,*,#128,.T.);
#213=ORIENTED_EDGE('',*,*,#155,.F.);
#214=ORIENTED_EDGE('',*,*,#156,.T.);
#215=ORIENTED_EDGE('',*,*,#154,.T.);
#216=ORIENTED_EDGE('',*,*,#156,.F.);
#217=ORIENTED_EDGE('',*,*,#155,.T.);
#218=ORIENTED_EDGE('',*,*,#143,.F.);
#219=CYLINDRICAL_SURFACE('',#253,2.117);
#220=CYLINDRICAL_SURFACE('',#262,9.);
#221=CYLINDRICAL_SURFACE('',#270,6.);
#222=CYLINDRICAL_SURFACE('',#279,9.);
#223=CYLINDRICAL_SURFACE('',#282,9.5);
#224=ADVANCED_FACE('',(#31),#219,.F.);
#225=ADVANCED_FACE('',(#32),#24,.T.);
#226=ADVANCED_FACE('',(#33),#25,.F.);
#227=ADVANCED_FACE('',(#34,#21),#26,.T.);
#228=ADVANCED_FACE('',(#35),#220,.T.);
#229=ADVANCED_FACE('',(#36),#27,.F.);
#230=ADVANCED_FACE('',(#37),#19,.F.);
#231=ADVANCED_FACE('',(#38),#221,.T.);
#232=ADVANCED_FACE('',(#39),#20,.F.);
#233=ADVANCED_FACE('',(#40),#28,.T.);
#234=ADVANCED_FACE('',(#41),#222,.T.);
#235=ADVANCED_FACE('',(#42,#22),#29,.T.);
#236=ADVANCED_FACE('',(#43),#223,.T.);
#237=ADVANCED_FACE('',(#44,#23),#30,.T.);
#238=CLOSED_SHELL('',(#224,#225,#226,#227,#228,#229,#230,#231,#232,#233,
#234,#235,#236,#237));
#239=DERIVED_UNIT_ELEMENT(#241,1.);
#240=DERIVED_UNIT_ELEMENT(#444,-3.);
#241=(
MASS_UNIT()
NAMED_UNIT(*)
SI_UNIT(.KILO.,.GRAM.)
);
#242=DERIVED_UNIT((#239,#240));
#243=MEASURE_REPRESENTATION_ITEM('density measure',
POSITIVE_RATIO_MEASURE(7850.),#242);
#244=PROPERTY_DEFINITION_REPRESENTATION(#249,#246);
#245=PROPERTY_DEFINITION_REPRESENTATION(#250,#247);
#246=REPRESENTATION('material name',(#248),#441);
#247=REPRESENTATION('density',(#243),#441);
#248=DESCRIPTIVE_REPRESENTATION_ITEM('Acier','Acier');
#249=PROPERTY_DEFINITION('material property','material name',#456);
#250=PROPERTY_DEFINITION('material property','density of part',#456);
#251=AXIS2_PLACEMENT_3D('',#369,#286,#287);
#252=AXIS2_PLACEMENT_3D('',#370,#288,#289);
#253=AXIS2_PLACEMENT_3D('',#371,#290,#291);
#254=AXIS2_PLACEMENT_3D('',#373,#292,#293);
#255=AXIS2_PLACEMENT_3D('',#376,#295,#296);
#256=AXIS2_PLACEMENT_3D('',#377,#297,#298);
#257=AXIS2_PLACEMENT_3D('',#380,#299,#300);
#258=AXIS2_PLACEMENT_3D('',#382,#302,#303);
#259=AXIS2_PLACEMENT_3D('',#392,#309,#310);
#260=AXIS2_PLACEMENT_3D('',#394,#311,#312);
#261=AXIS2_PLACEMENT_3D('',#397,#314,#315);
#262=AXIS2_PLACEMENT_3D('',#398,#316,#317);
#263=AXIS2_PLACEMENT_3D('',#400,#318,#319);
#264=AXIS2_PLACEMENT_3D('',#402,#321,#322);
#265=AXIS2_PLACEMENT_3D('',#406,#325,#326);
#266=AXIS2_PLACEMENT_3D('',#408,#327,#328);
#267=AXIS2_PLACEMENT_3D('',#410,#329,#330);
#268=AXIS2_PLACEMENT_3D('',#412,#331,#332);
#269=AXIS2_PLACEMENT_3D('',#413,#333,#334);
#270=AXIS2_PLACEMENT_3D('',#414,#335,#336);
#271=AXIS2_PLACEMENT_3D('',#417,#337,#338);
#272=AXIS2_PLACEMENT_3D('',#419,#340,#341);
#273=AXIS2_PLACEMENT_3D('',#420,#342,#343);
#274=AXIS2_PLACEMENT_3D('',#422,#344,#345);
#275=AXIS2_PLACEMENT_3D('',#423,#346,#347);
#276=AXIS2_PLACEMENT_3D('',#424,#348,#349);
#277=AXIS2_PLACEMENT_3D('',#425,#350,#351);
#278=AXIS2_PLACEMENT_3D('',#426,#352,#353);
#279=AXIS2_PLACEMENT_3D('',#427,#354,#355);
#280=AXIS2_PLACEMENT_3D('',#428,#356,#357);
#281=AXIS2_PLACEMENT_3D('',#430,#358,#359);
#282=AXIS2_PLACEMENT_3D('',#431,#360,#361);
#283=AXIS2_PLACEMENT_3D('',#433,#362,#363);
#284=AXIS2_PLACEMENT_3D('',#435,#365,#366);
#285=AXIS2_PLACEMENT_3D('',#436,#367,#368);
#286=DIRECTION('axis',(0.,0.,1.));
#287=DIRECTION('refdir',(1.,0.,0.));
#288=DIRECTION('axis',(0.,0.,1.));
#289=DIRECTION('refdir',(1.,0.,0.));
#290=DIRECTION('center_axis',(0.,0.,1.));
#291=DIRECTION('ref_axis',(-1.,0.,0.));
#292=DIRECTION('center_axis',(0.,0.,1.));
#293=DIRECTION('ref_axis',(-1.,0.,0.));
#294=DIRECTION('',(0.,0.,1.));
#295=DIRECTION('center_axis',(0.,0.,-1.));
#296=DIRECTION('ref_axis',(-1.,0.,0.));
#297=DIRECTION('center_axis',(0.,0.,-1.));
#298=DIRECTION('ref_axis',(-1.,0.,0.));
#299=DIRECTION('center_axis',(0.,0.,-1.));
#300=DIRECTION('ref_axis',(1.,0.,0.));
#301=DIRECTION('',(0.,1.,0.));
#302=DIRECTION('center_axis',(1.,0.,0.));
#303=DIRECTION('ref_axis',(0.,1.,0.));
#304=DIRECTION('',(0.,1.,0.));
#305=DIRECTION('',(0.,0.,-1.));
#306=DIRECTION('',(0.,-1.,0.));
#307=DIRECTION('',(0.,-1.,0.));
#308=DIRECTION('',(0.,0.,1.));
#309=DIRECTION('center_axis',(0.,0.,-1.));
#310=DIRECTION('ref_axis',(-1.,0.,0.));
#311=DIRECTION('center_axis',(0.,0.,-1.));
#312=DIRECTION('ref_axis',(1.,0.,0.));
#313=DIRECTION('',(0.,-1.,0.));
#314=DIRECTION('center_axis',(0.,0.,-1.));
#315=DIRECTION('ref_axis',(1.,0.,0.));
#316=DIRECTION('center_axis',(0.,0.,-1.));
#317=DIRECTION('ref_axis',(0.,1.,0.));
#318=DIRECTION('center_axis',(0.,0.,-1.));
#319=DIRECTION('ref_axis',(1.,0.,0.));
#320=DIRECTION('',(0.,0.,-1.));
#321=DIRECTION('center_axis',(-1.,0.,0.));
#322=DIRECTION('ref_axis',(0.,-1.,0.));
#323=DIRECTION('',(0.,1.,0.));
#324=DIRECTION('',(0.,0.,1.));
#325=DIRECTION('center_axis',(0.,0.,-1.));
#326=DIRECTION('ref_axis',(-1.,0.,0.));
#327=DIRECTION('center_axis',(0.,0.,-1.));
#328=DIRECTION('ref_axis',(1.,0.,0.));
#329=DIRECTION('center_axis',(-1.22464679914735E-16,-1.,0.));
#330=DIRECTION('ref_axis',(1.,-1.22464679914735E-16,0.));
#331=DIRECTION('center_axis',(0.,0.,-1.));
#332=DIRECTION('ref_axis',(1.,0.,0.));
#333=DIRECTION('center_axis',(0.,0.,-1.));
#334=DIRECTION('ref_axis',(1.,0.,0.));
#335=DIRECTION('center_axis',(0.,0.,-1.));
#336=DIRECTION('ref_axis',(0.,1.,0.));
#337=DIRECTION('center_axis',(0.,0.,-1.));
#338=DIRECTION('ref_axis',(1.,0.,0.));
#339=DIRECTION('',(0.,0.,1.));
#340=DIRECTION('center_axis',(0.,0.,-1.));
#341=DIRECTION('ref_axis',(1.,0.,0.));
#342=DIRECTION('center_axis',(0.,0.,-1.));
#343=DIRECTION('ref_axis',(-1.,0.,0.));
#344=DIRECTION('center_axis',(-1.22464679914735E-16,-1.,0.));
#345=DIRECTION('ref_axis',(1.,-1.22464679914735E-16,0.));
#346=DIRECTION('center_axis',(0.,0.,-1.));
#347=DIRECTION('ref_axis',(1.,0.,0.));
#348=DIRECTION('center_axis',(0.,0.,-1.));
#349=DIRECTION('ref_axis',(1.,0.,0.));
#350=DIRECTION('center_axis',(0.,0.,1.));
#351=DIRECTION('ref_axis',(1.,0.,0.));
#352=DIRECTION('center_axis',(0.,0.,-1.));
#353=DIRECTION('ref_axis',(1.,0.,0.));
#354=DIRECTION('center_axis',(0.,0.,-1.));
#355=DIRECTION('ref_axis',(0.0440082665606666,-0.999031166918393,0.));
#356=DIRECTION('center_axis',(0.,0.,1.));
#357=DIRECTION('ref_axis',(1.,0.,0.));
#358=DIRECTION('center_axis',(0.,0.,-1.));
#359=DIRECTION('ref_axis',(1.,0.,0.));
#360=DIRECTION('center_axis',(0.,0.,-1.));
#361=DIRECTION('ref_axis',(0.,1.,0.));
#362=DIRECTION('center_axis',(0.,0.,-1.));
#363=DIRECTION('ref_axis',(1.,0.,0.));
#364=DIRECTION('',(0.,0.,1.));
#365=DIRECTION('center_axis',(0.,0.,-1.));
#366=DIRECTION('ref_axis',(-1.,0.,0.));
#367=DIRECTION('',(0.,0.,1.));
#368=DIRECTION('',(1.,0.,0.));
#369=CARTESIAN_POINT('',(0.,0.,0.));
#370=CARTESIAN_POINT('',(0.,0.,0.));
#371=CARTESIAN_POINT('Origin',(0.,0.,0.));
#372=CARTESIAN_POINT('',(2.117,2.59257727379495E-16,0.));
#373=CARTESIAN_POINT('Origin',(0.,0.,0.));
#374=CARTESIAN_POINT('',(2.117,-2.59257727379495E-16,57.));
#375=CARTESIAN_POINT('',(2.117,2.59257727379495E-16,0.));
#376=CARTESIAN_POINT('Origin',(0.,0.,57.));
#377=CARTESIAN_POINT('Origin',(-8.11412493401501,-2.22044604925031E-15,
4.));
#378=CARTESIAN_POINT('',(-7.22824986803002,-2.00060957422003,4.));
#379=CARTESIAN_POINT('',(-7.22824986803002,2.00060957422003,4.));
#380=CARTESIAN_POINT('Origin',(0.,0.,4.0000000000018));
#381=CARTESIAN_POINT('',(-7.22824986803002,5.36212680242867,4.));
#382=CARTESIAN_POINT('Origin',(-7.22824986803002,-5.36212680242868,0.));
#383=CARTESIAN_POINT('',(-7.22824986803002,-5.36212680242868,0.));
#384=CARTESIAN_POINT('',(-7.22824986803002,5.36212680242867,0.));
#385=CARTESIAN_POINT('',(-7.22824986803002,-2.68106340121434,0.));
#386=CARTESIAN_POINT('',(-7.22824986803002,-5.36212680242868,4.));
#387=CARTESIAN_POINT('',(-7.22824986803002,-5.36212680242868,2.));
#388=CARTESIAN_POINT('',(-7.22824986803002,1.81893659878566,4.));
#389=CARTESIAN_POINT('',(-7.22824986803002,5.36212680242867,4.));
#390=CARTESIAN_POINT('',(-7.22824986803002,1.81893659878566,4.));
#391=CARTESIAN_POINT('',(-7.22824986803002,5.36212680242868,2.));
#392=CARTESIAN_POINT('Origin',(0.,0.,0.));
#393=CARTESIAN_POINT('',(7.67175013196998,4.70576772829031,0.));
#394=CARTESIAN_POINT('Origin',(0.,0.,0.));
#395=CARTESIAN_POINT('',(7.67175013196998,-4.70576772829031,0.));
#396=CARTESIAN_POINT('',(7.67175013196998,2.35288386414516,0.));
#397=CARTESIAN_POINT('Origin',(0.,0.,0.));
#398=CARTESIAN_POINT('Origin',(0.,0.,2.));
#399=CARTESIAN_POINT('',(7.67175013196998,4.70576772829031,4.));
#400=CARTESIAN_POINT('Origin',(0.,0.,4.));
#401=CARTESIAN_POINT('',(7.67175013196998,4.70576772829031,2.));
#402=CARTESIAN_POINT('Origin',(7.67175013196998,4.70576772829031,0.));
#403=CARTESIAN_POINT('',(7.67175013196998,-4.70576772829031,4.));
#404=CARTESIAN_POINT('',(7.67175013196998,6.85288386414516,4.));
#405=CARTESIAN_POINT('',(7.67175013196998,-4.70576772829031,2.));
#406=CARTESIAN_POINT('Origin',(0.,0.,51.249997408844));
#407=CARTESIAN_POINT('',(7.75,-9.49101269339199E-16,53.));
#408=CARTESIAN_POINT('Origin',(0.,0.,53.));
#409=CARTESIAN_POINT('',(5.99999999999807,-7.34788079488176E-16,51.249997408844));
#410=CARTESIAN_POINT('Origin',(7.75000259115598,-9.49101586664287E-16,51.249997408844));
#411=CARTESIAN_POINT('',(-7.34788079488412E-16,-6.,51.249997408844));
#412=CARTESIAN_POINT('Origin',(0.,0.,51.249997408844));
#413=CARTESIAN_POINT('Origin',(0.,0.,51.249997408844));
#414=CARTESIAN_POINT('Origin',(0.,0.,28.3749998651931));
#415=CARTESIAN_POINT('',(-7.34788079488412E-16,-6.,5.5000023215421));
#416=CARTESIAN_POINT('',(6.,-7.34788079488412E-16,5.5000023215421));
#417=CARTESIAN_POINT('Origin',(0.,0.,5.5000023215421));
#418=CARTESIAN_POINT('',(-7.34788079488412E-16,-6.,28.3749998651931));
#419=CARTESIAN_POINT('Origin',(0.,0.,5.5000023215421));
#420=CARTESIAN_POINT('Origin',(0.,0.,5.5000023215421));
#421=CARTESIAN_POINT('',(7.5,-9.18485099360515E-16,4.0000000000018));
#422=CARTESIAN_POINT('Origin',(7.5000023215421,-9.18485383667425E-16,5.5000023215421));
#423=CARTESIAN_POINT('Origin',(0.,0.,4.0000000000018));
#424=CARTESIAN_POINT('Origin',(0.,0.,4.0000000000018));
#425=CARTESIAN_POINT('Origin',(0.,9.,4.));
#426=CARTESIAN_POINT('Origin',(0.,0.,4.));
#427=CARTESIAN_POINT('Origin',(0.,0.,2.));
#428=CARTESIAN_POINT('Origin',(0.,9.5,57.));
#429=CARTESIAN_POINT('',(-1.16341445918999E-15,-9.5,57.));
#430=CARTESIAN_POINT('Origin',(0.,0.,57.));
#431=CARTESIAN_POINT('Origin',(0.,0.,55.));
#432=CARTESIAN_POINT('',(-1.16341445918999E-15,-9.5,53.));
#433=CARTESIAN_POINT('Origin',(0.,0.,53.));
#434=CARTESIAN_POINT('',(-1.16341445918999E-15,-9.5,55.));
#435=CARTESIAN_POINT('Origin',(0.,7.75,53.));
#436=CARTESIAN_POINT('',(0.,0.,0.));
#437=UNCERTAINTY_MEASURE_WITH_UNIT(LENGTH_MEASURE(0.01),#443,
'DISTANCE_ACCURACY_VALUE',
'Maximum model space distance between geometric entities at asserted c
onnectivities');
#438=UNCERTAINTY_MEASURE_WITH_UNIT(LENGTH_MEASURE(0.01),#443,
'DISTANCE_ACCURACY_VALUE',
'Maximum model space distance between geometric entities at asserted c
onnectivities');
#439=UNCERTAINTY_MEASURE_WITH_UNIT(LENGTH_MEASURE(0.01),#443,
'DISTANCE_ACCURACY_VALUE',
'Maximum model space distance between geometric entities at asserted c
onnectivities');
#440=(
GEOMETRIC_REPRESENTATION_CONTEXT(3)
GLOBAL_UNCERTAINTY_ASSIGNED_CONTEXT((#437))
GLOBAL_UNIT_ASSIGNED_CONTEXT((#443,#445,#446))
REPRESENTATION_CONTEXT('','3D')
);
#441=(
GEOMETRIC_REPRESENTATION_CONTEXT(3)
GLOBAL_UNCERTAINTY_ASSIGNED_CONTEXT((#438))
GLOBAL_UNIT_ASSIGNED_CONTEXT((#443,#445,#446))
REPRESENTATION_CONTEXT('','3D')
);
#442=(
GEOMETRIC_REPRESENTATION_CONTEXT(3)
GLOBAL_UNCERTAINTY_ASSIGNED_CONTEXT((#439))
GLOBAL_UNIT_ASSIGNED_CONTEXT((#443,#445,#446))
REPRESENTATION_CONTEXT('','3D')
);
#443=(
LENGTH_UNIT()
NAMED_UNIT(*)
SI_UNIT(.MILLI.,.METRE.)
);
#444=(
LENGTH_UNIT()
NAMED_UNIT(*)
SI_UNIT($,.METRE.)
);
#445=(
NAMED_UNIT(*)
PLANE_ANGLE_UNIT()
SI_UNIT($,.RADIAN.)
);
#446=(
NAMED_UNIT(*)
SI_UNIT($,.STERADIAN.)
SOLID_ANGLE_UNIT()
);
#447=SHAPE_DEFINITION_REPRESENTATION(#449,#452);
#448=SHAPE_DEFINITION_REPRESENTATION(#450,#453);
#449=PRODUCT_DEFINITION_SHAPE('',$,#455);
#450=PRODUCT_DEFINITION_SHAPE('',$,#456);
#451=PRODUCT_DEFINITION_SHAPE($,$,#14);
#452=SHAPE_REPRESENTATION('',(#251,#285),#440);
#453=SHAPE_REPRESENTATION('',(#252),#441);
#454=PRODUCT_DEFINITION_CONTEXT('part definition',#462,'design');
#455=PRODUCT_DEFINITION('Colonette','Colonette v1',#457,#454);
#456=PRODUCT_DEFINITION('Composant1','Composant1',#458,#454);
#457=PRODUCT_DEFINITION_FORMATION('',$,#464);
#458=PRODUCT_DEFINITION_FORMATION('',$,#465);
#459=PRODUCT_RELATED_PRODUCT_CATEGORY('Colonette v1','Colonette v1',(#464));
#460=PRODUCT_RELATED_PRODUCT_CATEGORY('Composant1','Composant1',(#465));
#461=APPLICATION_PROTOCOL_DEFINITION('international standard',
'automotive_design',2009,#462);
#462=APPLICATION_CONTEXT(
'Core Data for Automotive Mechanical Design Process');
#463=PRODUCT_CONTEXT('part definition',#462,'mechanical');
#464=PRODUCT('Colonette','Colonette v1',$,(#463));
#465=PRODUCT('Composant1','Composant1',$,(#463));
#466=PRESENTATION_STYLE_ASSIGNMENT((#467));
#467=SURFACE_STYLE_USAGE(.BOTH.,#468);
#468=SURFACE_SIDE_STYLE('',(#469));
#469=SURFACE_STYLE_FILL_AREA(#470);
#470=FILL_AREA_STYLE('Acier - Satin\X\E9',(#471));
#471=FILL_AREA_STYLE_COLOUR('Acier - Satin\X\E9',#472);
#472=COLOUR_RGB('Acier - Satin\X\E9',0.627450980392157,0.627450980392157,
0.627450980392157);
ENDSEC;
END-ISO-10303-21;
