ISO-10303-21;
HEADER;
FILE_DESCRIPTION (( 'STEP AP214' ),
    '1' );
FILE_NAME ('000077-03A.STEP',
    '2022-11-17T19:53:13',
    ( '' ),
    ( '' ),
    'SwSTEP 2.0',
    'SolidWorks 2014',
    '' );
FILE_SCHEMA (( 'AUTOMOTIVE_DESIGN' ));
ENDSEC;

DATA;
#1 = PRODUCT_CONTEXT ( 'NONE', #26, 'mechanical' ) ;
#2 = DIRECTION ( 'NONE',  ( 1.000000000000000000, 0.0000000000000000000, 0.0000000000000000000 ) ) ;
#3 = DIRECTION ( 'NONE',  ( 0.0000000000000000000, 0.0000000000000000000, 1.000000000000000000 ) ) ;
#4 = PRODUCT_RELATED_PRODUCT_CATEGORY ( 'part', '', ( #68 ) ) ;
#5 = DIRECTION ( 'NONE',  ( 1.000000000000000000, 0.0000000000000000000, 0.0000000000000000000 ) ) ;
#6 = PRODUCT_DEFINITION_FORMATION_WITH_SPECIFIED_SOURCE ( 'ANY', '', #68, .NOT_KNOWN. ) ;
#7 =( NAMED_UNIT ( * ) SI_UNIT ( $, .STERADIAN. ) SOLID_ANGLE_UNIT ( ) );
#8 = EDGE_CURVE ( 'NONE', #168, #141, #89, .T. ) ;
#9 = PRODUCT_DEFINITION ( 'UNKNOWN', '', #6, #38 ) ;
#10 = PRODUCT_DEFINITION_SHAPE ( 'NONE', 'NONE',  #9 ) ;
#11 = UNCERTAINTY_MEASURE_WITH_UNIT (LENGTH_MEASURE( 1.000000000000000100E-005 ), #18, 'distance_accuracy_value', 'NONE');
#12 = CARTESIAN_POINT ( 'NONE',  ( 0.0000000000000000000, 0.0000000000000000000, 5.000000000000000000 ) ) ;
#13 = ADVANCED_FACE ( 'NONE', ( #202, #91 ), #198, .T. ) ;
#14 = CARTESIAN_POINT ( 'NONE',  ( 0.0000000000000000000, 0.0000000000000000000, 5.000000000000000000 ) ) ;
#15 = AXIS2_PLACEMENT_3D ( 'NONE', #49, #3, #2 ) ;
#16 = ORIENTED_EDGE ( 'NONE', *, *, #8, .T. ) ;
#17 =( NAMED_UNIT ( * ) PLANE_ANGLE_UNIT ( ) SI_UNIT ( $, .RADIAN. ) );
#18 =( LENGTH_UNIT ( ) NAMED_UNIT ( * ) SI_UNIT ( .MILLI., .METRE. ) );
#19 = SURFACE_STYLE_USAGE ( .BOTH. , #20 ) ;
#20 = SURFACE_SIDE_STYLE ('',( #172 ) ) ;
#21 = ORIENTED_EDGE ( 'NONE', *, *, #51, .T. ) ;
#22 = VERTEX_POINT ( 'NONE', #100 ) ;
#23 = FILL_AREA_STYLE ('',( #48 ) ) ;
#24 =( GEOMETRIC_REPRESENTATION_CONTEXT ( 3 ) GLOBAL_UNCERTAINTY_ASSIGNED_CONTEXT ( ( #11 ) ) GLOBAL_UNIT_ASSIGNED_CONTEXT ( ( #18, #17, #7 ) ) REPRESENTATION_CONTEXT ( 'NONE', 'WORKASPACE' ) );
#25 = PRESENTATION_STYLE_ASSIGNMENT (( #19 ) ) ;
#26 = APPLICATION_CONTEXT ( 'automotive_design' ) ;
#27 = ORIENTED_EDGE ( 'NONE', *, *, #203, .T. ) ;
#28 = ADVANCED_BREP_SHAPE_REPRESENTATION ( '000077-03A', ( #116, #15 ), #62 ) ;
#29 = ADVANCED_FACE ( 'NONE', ( #81 ), #75, .T. ) ;
#30 = APPLICATION_PROTOCOL_DEFINITION ( 'draft international standard', 'automotive_design', 1998, #26 ) ;
#31 = VERTEX_POINT ( 'NONE', #105 ) ;
#32 =( NAMED_UNIT ( * ) SI_UNIT ( $, .STERADIAN. ) SOLID_ANGLE_UNIT ( ) );
#33 = MECHANICAL_DESIGN_GEOMETRIC_PRESENTATION_REPRESENTATION (  '', ( #44 ), #24 ) ;
#34 =( NAMED_UNIT ( * ) PLANE_ANGLE_UNIT ( ) SI_UNIT ( $, .RADIAN. ) );
#35 =( LENGTH_UNIT ( ) NAMED_UNIT ( * ) SI_UNIT ( .MILLI., .METRE. ) );
#36 = EDGE_CURVE ( 'NONE', #168, #104, #85, .T. ) ;
#37 = DIRECTION ( 'NONE',  ( 1.000000000000000000, 0.0000000000000000000, 0.0000000000000000000 ) ) ;
#38 = PRODUCT_DEFINITION_CONTEXT ( 'detailed design', #57, 'design' ) ;
#39 = APPLICATION_PROTOCOL_DEFINITION ( 'draft international standard', 'automotive_design', 1998, #57 ) ;
#40 = DIRECTION ( 'NONE',  ( 0.0000000000000000000, 0.0000000000000000000, 1.000000000000000000 ) ) ;
#41 = PRESENTATION_LAYER_ASSIGNMENT (  '', '', ( #44 ) ) ;
#42 = ORIENTED_EDGE ( 'NONE', *, *, #93, .F. ) ;
#43 = EDGE_CURVE ( 'NONE', #104, #168, #87, .T. ) ;
#44 = STYLED_ITEM ( 'NONE', ( #25 ), #28 ) ;
#45 = CARTESIAN_POINT ( 'NONE',  ( 0.0000000000000000000, 0.0000000000000000000, 0.0000000000000000000 ) ) ;
#46 = SURFACE_SIDE_STYLE ('',( #58 ) ) ;
#47 = EDGE_CURVE ( 'NONE', #178, #141, #82, .T. ) ;
#48 = FILL_AREA_STYLE_COLOUR ( '', #71 ) ;
#49 = CARTESIAN_POINT ( 'NONE',  ( 0.0000000000000000000, 0.0000000000000000000, 0.0000000000000000000 ) ) ;
#50 = UNCERTAINTY_MEASURE_WITH_UNIT (LENGTH_MEASURE( 1.000000000000000100E-005 ), #35, 'distance_accuracy_value', 'NONE');
#51 = EDGE_CURVE ( 'NONE', #130, #31, #76, .T. ) ;
#52 = CYLINDRICAL_SURFACE ( 'NONE', #196, 20.00000000000000000 ) ;
#53 = AXIS2_PLACEMENT_3D ( 'NONE', #60, #97, #83 ) ;
#54 = AXIS2_PLACEMENT_3D ( 'NONE', #45, #201, #37 ) ;
#55 = PRESENTATION_STYLE_ASSIGNMENT (( #151 ) ) ;
#56 = FACE_OUTER_BOUND ( 'NONE', #133, .T. ) ;
#57 = APPLICATION_CONTEXT ( 'automotive_design' ) ;
#58 = SURFACE_STYLE_FILL_AREA ( #156 ) ;
#59 = AXIS2_PLACEMENT_3D ( 'NONE', #106, #72, #66 ) ;
#60 = CARTESIAN_POINT ( 'NONE',  ( 0.0000000000000000000, 0.0000000000000000000, 5.000000000000000000 ) ) ;
#61 = VECTOR ( 'NONE', #102, 1000.000000000000000 ) ;
#62 =( GEOMETRIC_REPRESENTATION_CONTEXT ( 3 ) GLOBAL_UNCERTAINTY_ASSIGNED_CONTEXT ( ( #50 ) ) GLOBAL_UNIT_ASSIGNED_CONTEXT ( ( #35, #34, #32 ) ) REPRESENTATION_CONTEXT ( 'NONE', 'WORKASPACE' ) );
#63 = EDGE_CURVE ( 'NONE', #141, #178, #74, .T. ) ;
#64 = CIRCLE ( 'NONE', #186, 20.00000000000000000 ) ;
#65 = FACE_OUTER_BOUND ( 'NONE', #98, .T. ) ;
#66 = DIRECTION ( 'NONE',  ( 1.000000000000000000, 0.0000000000000000000, -0.0000000000000000000 ) ) ;
#67 = LINE ( 'NONE', #206, #61 ) ;
#68 = PRODUCT ( '000077-03A', '000077-03A', '', ( #1 ) ) ;
#69 = VECTOR ( 'NONE', #70, 1000.000000000000000 ) ;
#70 = DIRECTION ( 'NONE',  ( -0.0000000000000000000, -0.0000000000000000000, -1.000000000000000000 ) ) ;
#71 = COLOUR_RGB ( '',0.7921568627450980000, 0.8196078431372548800, 0.9333333333333333500 ) ;
#72 = DIRECTION ( 'NONE',  ( 0.0000000000000000000, 0.0000000000000000000, 1.000000000000000000 ) ) ;
#73 = COLOUR_RGB ( '',0.7921568627450980000, 0.8196078431372548800, 0.9333333333333333500 ) ;
#74 = CIRCLE ( 'NONE', #205, 11.25000000000000200 ) ;
#75 = CYLINDRICAL_SURFACE ( 'NONE', #135, 20.00000000000000000 ) ;
#76 = LINE ( 'NONE', #210, #69 ) ;
#77 = UNCERTAINTY_MEASURE_WITH_UNIT (LENGTH_MEASURE( 1.000000000000000100E-005 ), #150, 'distance_accuracy_value', 'NONE');
#78 = DIRECTION ( 'NONE',  ( 0.0000000000000000000, 0.0000000000000000000, 1.000000000000000000 ) ) ;
#79 = PRESENTATION_LAYER_ASSIGNMENT (  '', '', ( #200 ) ) ;
#80 = CARTESIAN_POINT ( 'NONE',  ( 0.0000000000000000000, 0.0000000000000000000, 5.000000000000000000 ) ) ;
#81 = FACE_OUTER_BOUND ( 'NONE', #137, .T. ) ;
#82 = CIRCLE ( 'NONE', #143, 11.25000000000000200 ) ;
#83 = DIRECTION ( 'NONE',  ( -1.000000000000000000, 0.0000000000000000000, 0.0000000000000000000 ) ) ;
#84 = DIRECTION ( 'NONE',  ( 1.000000000000000000, 0.0000000000000000000, 0.0000000000000000000 ) ) ;
#85 = CIRCLE ( 'NONE', #127, 11.25000000000000200 ) ;
#86 = DIRECTION ( 'NONE',  ( 0.0000000000000000000, 0.0000000000000000000, 1.000000000000000000 ) ) ;
#87 = CIRCLE ( 'NONE', #119, 11.25000000000000200 ) ;
#88 = VECTOR ( 'NONE', #174, 1000.000000000000000 ) ;
#89 = LINE ( 'NONE', #190, #88 ) ;
#90 = AXIS2_PLACEMENT_3D ( 'NONE', #12, #86, #84 ) ;
#91 = FACE_BOUND ( 'NONE', #111, .T. ) ;
#92 = PLANE ( 'NONE',  #59 ) ;
#93 = EDGE_CURVE ( 'NONE', #104, #178, #67, .T. ) ;
#94 = ADVANCED_FACE ( 'NONE', ( #56 ), #52, .T. ) ;
#95 = EDGE_LOOP ( 'NONE', ( #154, #155 ) ) ;
#96 = AXIS2_PLACEMENT_3D ( 'NONE', #134, #180, #169 ) ;
#97 = DIRECTION ( 'NONE',  ( -0.0000000000000000000, -0.0000000000000000000, -1.000000000000000000 ) ) ;
#98 = EDGE_LOOP ( 'NONE', ( #179, #16, #147, #42 ) ) ;
#99 = ORIENTED_EDGE ( 'NONE', *, *, #107, .F. ) ;
#100 = CARTESIAN_POINT ( 'NONE',  ( -20.00000000000000000, 0.0000000000000000000, 0.0000000000000000000 ) ) ;
#101 = DIRECTION ( 'NONE',  ( 0.0000000000000000000, 0.0000000000000000000, 1.000000000000000000 ) ) ;
#102 = DIRECTION ( 'NONE',  ( -0.0000000000000000000, -0.0000000000000000000, -1.000000000000000000 ) ) ;
#103 = EDGE_LOOP ( 'NONE', ( #144, #211 ) ) ;
#104 = VERTEX_POINT ( 'NONE', #175 ) ;
#105 = CARTESIAN_POINT ( 'NONE',  ( 20.00000000000000000, 2.449293598294706500E-015, 0.0000000000000000000 ) ) ;
#106 = CARTESIAN_POINT ( 'NONE',  ( 0.0000000000000000000, 0.0000000000000000000, 0.0000000000000000000 ) ) ;
#107 = EDGE_CURVE ( 'NONE', #166, #130, #64, .T. ) ;
#108 = CARTESIAN_POINT ( 'NONE',  ( -20.00000000000000000, 0.0000000000000000000, 5.000000000000000000 ) ) ;
#109 = ORIENTED_EDGE ( 'NONE', *, *, #176, .F. ) ;
#110 = ORIENTED_EDGE ( 'NONE', *, *, #140, .T. ) ;
#111 = EDGE_LOOP ( 'NONE', ( #146, #165 ) ) ;
#112 = CARTESIAN_POINT ( 'NONE',  ( -11.25000000000000200, 0.0000000000000000000, 0.0000000000000000000 ) ) ;
#113 = AXIS2_PLACEMENT_3D ( 'NONE', #123, #121, #115 ) ;
#114 = ORIENTED_EDGE ( 'NONE', *, *, #158, .F. ) ;
#115 = DIRECTION ( 'NONE',  ( 1.000000000000000000, 0.0000000000000000000, 0.0000000000000000000 ) ) ;
#116 = MANIFOLD_SOLID_BREP ( 'Boss.-Extru.1', #167 ) ;
#117 = ADVANCED_FACE ( 'NONE', ( #65 ), #199, .F. ) ;
#118 = EDGE_LOOP ( 'NONE', ( #214, #192, #157, #183 ) ) ;
#119 = AXIS2_PLACEMENT_3D ( 'NONE', #14, #40, #5 ) ;
#120 = ORIENTED_EDGE ( 'NONE', *, *, #158, .T. ) ;
#121 = DIRECTION ( 'NONE',  ( 0.0000000000000000000, 0.0000000000000000000, 1.000000000000000000 ) ) ;
#122 = DIRECTION ( 'NONE',  ( -1.000000000000000000, 0.0000000000000000000, 0.0000000000000000000 ) ) ;
#123 = CARTESIAN_POINT ( 'NONE',  ( 0.0000000000000000000, 0.0000000000000000000, 0.0000000000000000000 ) ) ;
#124 = ORIENTED_EDGE ( 'NONE', *, *, #203, .F. ) ;
#125 = CARTESIAN_POINT ( 'NONE',  ( -20.00000000000000000, 0.0000000000000000000, 5.000000000000000000 ) ) ;
#126 = DIRECTION ( 'NONE',  ( -0.0000000000000000000, -0.0000000000000000000, -1.000000000000000000 ) ) ;
#127 = AXIS2_PLACEMENT_3D ( 'NONE', #80, #78, #149 ) ;
#128 = EDGE_LOOP ( 'NONE', ( #124, #185 ) ) ;
#129 = CARTESIAN_POINT ( 'NONE',  ( 20.00000000000000000, 2.449293598294706500E-015, 5.000000000000000000 ) ) ;
#130 = VERTEX_POINT ( 'NONE', #129 ) ;
#131 = CARTESIAN_POINT ( 'NONE',  ( 11.25000000000000200, 1.377727649040772600E-015, 0.0000000000000000000 ) ) ;
#132 = VECTOR ( 'NONE', #126, 1000.000000000000000 ) ;
#133 = EDGE_LOOP ( 'NONE', ( #161, #99, #120, #27 ) ) ;
#134 = CARTESIAN_POINT ( 'NONE',  ( 0.0000000000000000000, 0.0000000000000000000, 5.000000000000000000 ) ) ;
#135 = AXIS2_PLACEMENT_3D ( 'NONE', #142, #213, #122 ) ;
#136 = CYLINDRICAL_SURFACE ( 'NONE', #53, 11.25000000000000200 ) ;
#137 = EDGE_LOOP ( 'NONE', ( #109, #21, #110, #114 ) ) ;
#138 = CIRCLE ( 'NONE', #54, 20.00000000000000000 ) ;
#139 =( NAMED_UNIT ( * ) SI_UNIT ( $, .STERADIAN. ) SOLID_ANGLE_UNIT ( ) );
#140 = EDGE_CURVE ( 'NONE', #31, #22, #181, .T. ) ;
#141 = VERTEX_POINT ( 'NONE', #131 ) ;
#142 = CARTESIAN_POINT ( 'NONE',  ( 0.0000000000000000000, 0.0000000000000000000, 5.000000000000000000 ) ) ;
#143 = AXIS2_PLACEMENT_3D ( 'NONE', #209, #208, #207 ) ;
#144 = ORIENTED_EDGE ( 'NONE', *, *, #107, .T. ) ;
#145 = DIRECTION ( 'NONE',  ( 1.000000000000000000, 0.0000000000000000000, -0.0000000000000000000 ) ) ;
#146 = ORIENTED_EDGE ( 'NONE', *, *, #43, .F. ) ;
#147 = ORIENTED_EDGE ( 'NONE', *, *, #47, .F. ) ;
#148 =( NAMED_UNIT ( * ) PLANE_ANGLE_UNIT ( ) SI_UNIT ( $, .RADIAN. ) );
#149 = DIRECTION ( 'NONE',  ( 1.000000000000000000, 0.0000000000000000000, 0.0000000000000000000 ) ) ;
#150 =( LENGTH_UNIT ( ) NAMED_UNIT ( * ) SI_UNIT ( .MILLI., .METRE. ) );
#151 = SURFACE_STYLE_USAGE ( .BOTH. , #46 ) ;
#152 = FACE_OUTER_BOUND ( 'NONE', #118, .T. ) ;
#153 = MECHANICAL_DESIGN_GEOMETRIC_PRESENTATION_REPRESENTATION (  '', ( #200 ), #197 ) ;
#154 = ORIENTED_EDGE ( 'NONE', *, *, #47, .T. ) ;
#155 = ORIENTED_EDGE ( 'NONE', *, *, #63, .T. ) ;
#156 = FILL_AREA_STYLE ('',( #164 ) ) ;
#157 = ORIENTED_EDGE ( 'NONE', *, *, #93, .T. ) ;
#158 = EDGE_CURVE ( 'NONE', #166, #22, #195, .T. ) ;
#159 = CARTESIAN_POINT ( 'NONE',  ( 0.0000000000000000000, 0.0000000000000000000, 5.000000000000000000 ) ) ;
#160 = DIRECTION ( 'NONE',  ( 1.000000000000000000, 0.0000000000000000000, 0.0000000000000000000 ) ) ;
#161 = ORIENTED_EDGE ( 'NONE', *, *, #51, .F. ) ;
#162 = DIRECTION ( 'NONE',  ( 0.0000000000000000000, 0.0000000000000000000, 1.000000000000000000 ) ) ;
#163 = CARTESIAN_POINT ( 'NONE',  ( 0.0000000000000000000, 0.0000000000000000000, 5.000000000000000000 ) ) ;
#164 = FILL_AREA_STYLE_COLOUR ( '', #73 ) ;
#165 = ORIENTED_EDGE ( 'NONE', *, *, #36, .F. ) ;
#166 = VERTEX_POINT ( 'NONE', #108 ) ;
#167 = CLOSED_SHELL ( 'NONE', ( #117, #29, #13, #187, #94, #189 ) ) ;
#168 = VERTEX_POINT ( 'NONE', #177 ) ;
#169 = DIRECTION ( 'NONE',  ( -1.000000000000000000, 0.0000000000000000000, 0.0000000000000000000 ) ) ;
#170 = FACE_OUTER_BOUND ( 'NONE', #128, .T. ) ;
#171 = AXIS2_PLACEMENT_3D ( 'NONE', #159, #101, #145 ) ;
#172 = SURFACE_STYLE_FILL_AREA ( #23 ) ;
#173 = CIRCLE ( 'NONE', #90, 20.00000000000000000 ) ;
#174 = DIRECTION ( 'NONE',  ( -0.0000000000000000000, -0.0000000000000000000, -1.000000000000000000 ) ) ;
#175 = CARTESIAN_POINT ( 'NONE',  ( -11.25000000000000200, 0.0000000000000000000, 5.000000000000000000 ) ) ;
#176 = EDGE_CURVE ( 'NONE', #130, #166, #173, .T. ) ;
#177 = CARTESIAN_POINT ( 'NONE',  ( 11.25000000000000200, 1.377727649040772600E-015, 5.000000000000000000 ) ) ;
#178 = VERTEX_POINT ( 'NONE', #112 ) ;
#179 = ORIENTED_EDGE ( 'NONE', *, *, #43, .T. ) ;
#180 = DIRECTION ( 'NONE',  ( -0.0000000000000000000, -0.0000000000000000000, -1.000000000000000000 ) ) ;
#181 = CIRCLE ( 'NONE', #113, 20.00000000000000000 ) ;
#182 = DIRECTION ( 'NONE',  ( -1.000000000000000000, 0.0000000000000000000, 0.0000000000000000000 ) ) ;
#183 = ORIENTED_EDGE ( 'NONE', *, *, #63, .F. ) ;
#184 = DIRECTION ( 'NONE',  ( -0.0000000000000000000, -0.0000000000000000000, -1.000000000000000000 ) ) ;
#185 = ORIENTED_EDGE ( 'NONE', *, *, #140, .F. ) ;
#186 = AXIS2_PLACEMENT_3D ( 'NONE', #163, #162, #160 ) ;
#187 = ADVANCED_FACE ( 'NONE', ( #170, #204 ), #92, .F. ) ;
#188 = DIRECTION ( 'NONE',  ( 1.000000000000000000, 0.0000000000000000000, 0.0000000000000000000 ) ) ;
#189 = ADVANCED_FACE ( 'NONE', ( #152 ), #136, .F. ) ;
#190 = CARTESIAN_POINT ( 'NONE',  ( 11.25000000000000200, 1.377727649040772600E-015, 5.000000000000000000 ) ) ;
#191 = DIRECTION ( 'NONE',  ( 0.0000000000000000000, 0.0000000000000000000, 1.000000000000000000 ) ) ;
#192 = ORIENTED_EDGE ( 'NONE', *, *, #36, .T. ) ;
#193 = CARTESIAN_POINT ( 'NONE',  ( 0.0000000000000000000, 0.0000000000000000000, 0.0000000000000000000 ) ) ;
#194 = CARTESIAN_POINT ( 'NONE',  ( 0.0000000000000000000, 0.0000000000000000000, 5.000000000000000000 ) ) ;
#195 = LINE ( 'NONE', #125, #132 ) ;
#196 = AXIS2_PLACEMENT_3D ( 'NONE', #194, #184, #182 ) ;
#197 =( GEOMETRIC_REPRESENTATION_CONTEXT ( 3 ) GLOBAL_UNCERTAINTY_ASSIGNED_CONTEXT ( ( #77 ) ) GLOBAL_UNIT_ASSIGNED_CONTEXT ( ( #150, #148, #139 ) ) REPRESENTATION_CONTEXT ( 'NONE', 'WORKASPACE' ) );
#198 = PLANE ( 'NONE',  #171 ) ;
#199 = CYLINDRICAL_SURFACE ( 'NONE', #96, 11.25000000000000200 ) ;
#200 = STYLED_ITEM ( 'NONE', ( #55 ), #116 ) ;
#201 = DIRECTION ( 'NONE',  ( 0.0000000000000000000, 0.0000000000000000000, 1.000000000000000000 ) ) ;
#202 = FACE_OUTER_BOUND ( 'NONE', #103, .T. ) ;
#203 = EDGE_CURVE ( 'NONE', #22, #31, #138, .T. ) ;
#204 = FACE_BOUND ( 'NONE', #95, .T. ) ;
#205 = AXIS2_PLACEMENT_3D ( 'NONE', #193, #191, #188 ) ;
#206 = CARTESIAN_POINT ( 'NONE',  ( -11.25000000000000200, 0.0000000000000000000, 5.000000000000000000 ) ) ;
#207 = DIRECTION ( 'NONE',  ( 1.000000000000000000, 0.0000000000000000000, 0.0000000000000000000 ) ) ;
#208 = DIRECTION ( 'NONE',  ( 0.0000000000000000000, 0.0000000000000000000, 1.000000000000000000 ) ) ;
#209 = CARTESIAN_POINT ( 'NONE',  ( 0.0000000000000000000, 0.0000000000000000000, 0.0000000000000000000 ) ) ;
#210 = CARTESIAN_POINT ( 'NONE',  ( 20.00000000000000000, 2.449293598294706500E-015, 5.000000000000000000 ) ) ;
#211 = ORIENTED_EDGE ( 'NONE', *, *, #176, .T. ) ;
#212 = SHAPE_DEFINITION_REPRESENTATION ( #10, #28 ) ;
#213 = DIRECTION ( 'NONE',  ( -0.0000000000000000000, -0.0000000000000000000, -1.000000000000000000 ) ) ;
#214 = ORIENTED_EDGE ( 'NONE', *, *, #8, .F. ) ;
ENDSEC;
END-ISO-10303-21;
