ISO-10303-21;
HEADER;
FILE_DESCRIPTION(('CATIA V5 STEP Exchange'),'2;1');

FILE_NAME('C:\\Users\\Maryline\\Desktop\\Formule_Renault\\77 11 154 185 Joint.stp','2023-04-30T20:43:12+00:00',('none'),('none'),'CATIA Version 5 Release 17 (IN-10)','CATIA V5 STEP AP203','none');

FILE_SCHEMA(('CONFIG_CONTROL_DESIGN'));

ENDSEC;
/* file written by CATIA V5R17 */
DATA;
#5=PRODUCT('Part2','','',(#2)) ;
#1=APPLICATION_CONTEXT('configuration controlled 3D design of mechanical parts and assemblies') ;
#14=PRODUCT_DEFINITION(' ',' ',#6,#3) ;
#16=SECURITY_CLASSIFICATION(' ',' ',#15) ;
#15=SECURITY_CLASSIFICATION_LEVEL('unclassified') ;
#47=CARTESIAN_POINT(' ',(0.,0.,0.)) ;
#52=CARTESIAN_POINT('Axis2P3D Location',(-1.,0.,0.)) ;
#57=CARTESIAN_POINT('Axis2P3D Location',(-2.,0.,0.)) ;
#61=CARTESIAN_POINT('Vertex',(-2.,17.5,0.)) ;
#63=CARTESIAN_POINT('Vertex',(-2.,-17.5,2.14306111919E-015)) ;
#66=CARTESIAN_POINT('Line Origine',(-1.,-17.5,2.14306111919E-015)) ;
#70=CARTESIAN_POINT('Vertex',(0.,-17.5,2.14306111919E-015)) ;
#73=CARTESIAN_POINT('Axis2P3D Location',(0.,0.,0.)) ;
#77=CARTESIAN_POINT('Vertex',(0.,17.5,0.)) ;
#80=CARTESIAN_POINT('Line Origine',(-1.,17.5,0.)) ;
#92=CARTESIAN_POINT('Axis2P3D Location',(-2.,0.,0.)) ;
#97=CARTESIAN_POINT('Axis2P3D Location',(0.,0.,0.)) ;
#109=CARTESIAN_POINT('Axis2P3D Location',(-1.,0.,0.)) ;
#114=CARTESIAN_POINT('Line Origine',(-1.,-11.5,6.51532322017E-015)) ;
#118=CARTESIAN_POINT('Vertex',(0.,-11.5,6.51532322017E-015)) ;
#120=CARTESIAN_POINT('Vertex',(-2.,-11.5,6.51532322017E-015)) ;
#123=CARTESIAN_POINT('Axis2P3D Location',(0.,0.,0.)) ;
#127=CARTESIAN_POINT('Vertex',(0.,11.5,0.)) ;
#130=CARTESIAN_POINT('Line Origine',(-1.,11.5,-1.30306464403E-014)) ;
#134=CARTESIAN_POINT('Vertex',(-2.,11.5,0.)) ;
#137=CARTESIAN_POINT('Axis2P3D Location',(-2.,0.,0.)) ;
#149=CARTESIAN_POINT('Axis2P3D Location',(0.,0.,0.)) ;
#154=CARTESIAN_POINT('Axis2P3D Location',(-2.,0.,0.)) ;
#166=CARTESIAN_POINT('Axis2P3D Location',(0.,0.,0.)) ;
#180=CARTESIAN_POINT('Axis2P3D Location',(-2.,0.,0.)) ;
#53=DIRECTION('Axis2P3D Direction',(1.,0.,0.)) ;
#54=DIRECTION('Axis2P3D XDirection',(0.,1.,0.)) ;
#58=DIRECTION('Axis2P3D Direction',(1.,0.,0.)) ;
#67=DIRECTION('Vector Direction',(1.,0.,0.)) ;
#74=DIRECTION('Axis2P3D Direction',(1.,0.,0.)) ;
#81=DIRECTION('Vector Direction',(1.,0.,0.)) ;
#93=DIRECTION('Axis2P3D Direction',(1.,0.,0.)) ;
#98=DIRECTION('Axis2P3D Direction',(1.,0.,0.)) ;
#110=DIRECTION('Axis2P3D Direction',(1.,0.,0.)) ;
#111=DIRECTION('Axis2P3D XDirection',(0.,1.,0.)) ;
#115=DIRECTION('Vector Direction',(1.,0.,0.)) ;
#124=DIRECTION('Axis2P3D Direction',(1.,0.,0.)) ;
#131=DIRECTION('Vector Direction',(1.,0.,0.)) ;
#138=DIRECTION('Axis2P3D Direction',(1.,0.,0.)) ;
#150=DIRECTION('Axis2P3D Direction',(1.,0.,0.)) ;
#155=DIRECTION('Axis2P3D Direction',(1.,0.,0.)) ;
#167=DIRECTION('Axis2P3D Direction',(1.,0.,0.)) ;
#168=DIRECTION('Axis2P3D XDirection',(0.,1.,0.)) ;
#181=DIRECTION('Axis2P3D Direction',(1.,0.,0.)) ;
#182=DIRECTION('Axis2P3D XDirection',(0.,1.,0.)) ;
#48=AXIS2_PLACEMENT_3D(' ',#47,$,$) ;
#55=AXIS2_PLACEMENT_3D('Cylinder Axis2P3D',#52,#53,#54) ;
#59=AXIS2_PLACEMENT_3D('Circle Axis2P3D',#57,#58,$) ;
#75=AXIS2_PLACEMENT_3D('Circle Axis2P3D',#73,#74,$) ;
#94=AXIS2_PLACEMENT_3D('Circle Axis2P3D',#92,#93,$) ;
#99=AXIS2_PLACEMENT_3D('Circle Axis2P3D',#97,#98,$) ;
#112=AXIS2_PLACEMENT_3D('Cylinder Axis2P3D',#109,#110,#111) ;
#125=AXIS2_PLACEMENT_3D('Circle Axis2P3D',#123,#124,$) ;
#139=AXIS2_PLACEMENT_3D('Circle Axis2P3D',#137,#138,$) ;
#151=AXIS2_PLACEMENT_3D('Circle Axis2P3D',#149,#150,$) ;
#156=AXIS2_PLACEMENT_3D('Circle Axis2P3D',#154,#155,$) ;
#169=AXIS2_PLACEMENT_3D('Plane Axis2P3D',#166,#167,#168) ;
#183=AXIS2_PLACEMENT_3D('Plane Axis2P3D',#180,#181,#182) ;
#40=PRODUCT_DEFINITION_SHAPE(' ',' ',#14) ;
#31=APPROVAL_PERSON_ORGANIZATION(#25,#21,#19) ;
#25=PERSON_AND_ORGANIZATION(#22,#23) ;
#22=PERSON(' ',' ',' ',$,$,$) ;
#23=ORGANIZATION(' ',' ',' ') ;
#21=APPROVAL(#20,' ') ;
#20=APPROVAL_STATUS('not_yet_approved') ;
#19=APPROVAL_ROLE('APPROVER') ;
#13=DATE_AND_TIME(#11,#12) ;
#12=LOCAL_TIME(22,43,11.,#10) ;
#10=COORDINATED_UNIVERSAL_TIME_OFFSET(0,0,.AHEAD.) ;
#86=ORIENTED_EDGE('',*,*,#65,.T.) ;
#87=ORIENTED_EDGE('',*,*,#72,.F.) ;
#88=ORIENTED_EDGE('',*,*,#79,.F.) ;
#89=ORIENTED_EDGE('',*,*,#84,.T.) ;
#103=ORIENTED_EDGE('',*,*,#96,.T.) ;
#104=ORIENTED_EDGE('',*,*,#84,.F.) ;
#105=ORIENTED_EDGE('',*,*,#101,.F.) ;
#106=ORIENTED_EDGE('',*,*,#72,.T.) ;
#143=ORIENTED_EDGE('',*,*,#122,.F.) ;
#144=ORIENTED_EDGE('',*,*,#129,.T.) ;
#145=ORIENTED_EDGE('',*,*,#136,.T.) ;
#146=ORIENTED_EDGE('',*,*,#141,.F.) ;
#160=ORIENTED_EDGE('',*,*,#136,.F.) ;
#161=ORIENTED_EDGE('',*,*,#153,.T.) ;
#162=ORIENTED_EDGE('',*,*,#122,.T.) ;
#163=ORIENTED_EDGE('',*,*,#158,.F.) ;
#172=ORIENTED_EDGE('',*,*,#79,.T.) ;
#173=ORIENTED_EDGE('',*,*,#101,.T.) ;
#176=ORIENTED_EDGE('',*,*,#129,.F.) ;
#177=ORIENTED_EDGE('',*,*,#153,.F.) ;
#186=ORIENTED_EDGE('',*,*,#96,.F.) ;
#187=ORIENTED_EDGE('',*,*,#65,.F.) ;
#190=ORIENTED_EDGE('',*,*,#158,.T.) ;
#191=ORIENTED_EDGE('',*,*,#141,.T.) ;
#178=FACE_BOUND('',#175,.T.) ;
#192=FACE_BOUND('',#189,.T.) ;
#51=CLOSED_SHELL('Closed Shell',(#91,#108,#148,#165,#179,#193)) ;
#68=VECTOR('Line Direction',#67,1.) ;
#82=VECTOR('Line Direction',#81,1.) ;
#116=VECTOR('Line Direction',#115,1.) ;
#132=VECTOR('Line Direction',#131,1.) ;
#195=ADVANCED_BREP_SHAPE_REPRESENTATION('NONE',(#194),#46) ;
#49=SHAPE_REPRESENTATION(' ',(#48),#46) ;
#91=ADVANCED_FACE('',(#90),#56,.T.) ;
#108=ADVANCED_FACE('',(#107),#56,.T.) ;
#148=ADVANCED_FACE('',(#147),#113,.F.) ;
#165=ADVANCED_FACE('',(#164),#113,.F.) ;
#179=ADVANCED_FACE('',(#174,#178),#170,.T.) ;
#193=ADVANCED_FACE('',(#188,#192),#184,.F.) ;
#4=APPLICATION_PROTOCOL_DEFINITION('international standard','config_control_design',1994,#1) ;
#32=APPROVAL_DATE_TIME(#13,#21) ;
#194=MANIFOLD_SOLID_BREP('Corps principal',#51) ;
#11=CALENDAR_DATE(2023,30,4) ;
#30=CC_DESIGN_APPROVAL(#21,(#16,#6,#14)) ;
#18=CC_DESIGN_DATE_AND_TIME_ASSIGNMENT(#13,#17,(#16)) ;
#29=CC_DESIGN_DATE_AND_TIME_ASSIGNMENT(#13,#28,(#14)) ;
#17=DATE_TIME_ROLE('classification_date') ;
#28=DATE_TIME_ROLE('creation_date') ;
#27=CC_DESIGN_PERSON_AND_ORGANIZATION_ASSIGNMENT(#25,#26,(#16)) ;
#33=CC_DESIGN_PERSON_AND_ORGANIZATION_ASSIGNMENT(#25,#34,(#6)) ;
#35=CC_DESIGN_PERSON_AND_ORGANIZATION_ASSIGNMENT(#25,#36,(#6,#14)) ;
#37=CC_DESIGN_PERSON_AND_ORGANIZATION_ASSIGNMENT(#25,#38,(#5)) ;
#26=PERSON_AND_ORGANIZATION_ROLE('classification_officer') ;
#34=PERSON_AND_ORGANIZATION_ROLE('design_supplier') ;
#36=PERSON_AND_ORGANIZATION_ROLE('creator') ;
#38=PERSON_AND_ORGANIZATION_ROLE('design_owner') ;
#39=CC_DESIGN_SECURITY_CLASSIFICATION(#16,(#6)) ;
#60=CIRCLE('generated circle',#59,17.5) ;
#76=CIRCLE('generated circle',#75,17.5) ;
#95=CIRCLE('generated circle',#94,17.5) ;
#100=CIRCLE('generated circle',#99,17.5) ;
#126=CIRCLE('generated circle',#125,11.5) ;
#140=CIRCLE('generated circle',#139,11.5) ;
#152=CIRCLE('generated circle',#151,11.5) ;
#157=CIRCLE('generated circle',#156,11.5) ;
#196=SHAPE_REPRESENTATION_RELATIONSHIP(' ',' ',#49,#195) ;
#56=CYLINDRICAL_SURFACE('generated cylinder',#55,17.5) ;
#113=CYLINDRICAL_SURFACE('generated cylinder',#112,11.5) ;
#3=DESIGN_CONTEXT(' ',#1,'design') ;
#65=EDGE_CURVE('',#62,#64,#60,.T.) ;
#72=EDGE_CURVE('',#71,#64,#69,.F.) ;
#79=EDGE_CURVE('',#78,#71,#76,.T.) ;
#84=EDGE_CURVE('',#78,#62,#83,.F.) ;
#96=EDGE_CURVE('',#64,#62,#95,.T.) ;
#101=EDGE_CURVE('',#71,#78,#100,.T.) ;
#122=EDGE_CURVE('',#119,#121,#117,.F.) ;
#129=EDGE_CURVE('',#119,#128,#126,.T.) ;
#136=EDGE_CURVE('',#128,#135,#133,.F.) ;
#141=EDGE_CURVE('',#121,#135,#140,.T.) ;
#153=EDGE_CURVE('',#128,#119,#152,.T.) ;
#158=EDGE_CURVE('',#135,#121,#157,.T.) ;
#85=EDGE_LOOP('',(#86,#87,#88,#89)) ;
#102=EDGE_LOOP('',(#103,#104,#105,#106)) ;
#142=EDGE_LOOP('',(#143,#144,#145,#146)) ;
#159=EDGE_LOOP('',(#160,#161,#162,#163)) ;
#171=EDGE_LOOP('',(#172,#173)) ;
#175=EDGE_LOOP('',(#176,#177)) ;
#185=EDGE_LOOP('',(#186,#187)) ;
#189=EDGE_LOOP('',(#190,#191)) ;
#90=FACE_OUTER_BOUND('',#85,.T.) ;
#107=FACE_OUTER_BOUND('',#102,.T.) ;
#147=FACE_OUTER_BOUND('',#142,.T.) ;
#164=FACE_OUTER_BOUND('',#159,.T.) ;
#174=FACE_OUTER_BOUND('',#171,.T.) ;
#188=FACE_OUTER_BOUND('',#185,.T.) ;
#45=UNCERTAINTY_MEASURE_WITH_UNIT(LENGTH_MEASURE(0.005),#41,'distance_accuracy_value','CONFUSED CURVE UNCERTAINTY') ;
#69=LINE('Line',#66,#68) ;
#83=LINE('Line',#80,#82) ;
#117=LINE('Line',#114,#116) ;
#133=LINE('Line',#130,#132) ;
#2=MECHANICAL_CONTEXT(' ',#1,'mechanical') ;
#24=PERSONAL_ADDRESS(' ',' ',' ',' ',' ',' ',' ',' ',' ',' ',' ',' ',(#22),' ') ;
#170=PLANE('Plane',#169) ;
#184=PLANE('Plane',#183) ;
#43=PLANE_ANGLE_MEASURE_WITH_UNIT(PLANE_ANGLE_MEASURE(0.0174532925199),#42) ;
#7=PRODUCT_CATEGORY('part',$) ;
#9=PRODUCT_CATEGORY_RELATIONSHIP(' ',' ',#7,#8) ;
#6=PRODUCT_DEFINITION_FORMATION_WITH_SPECIFIED_SOURCE('',' ',#5,.NOT_KNOWN.) ;
#8=PRODUCT_RELATED_PRODUCT_CATEGORY('detail',$,(#5)) ;
#50=SHAPE_DEFINITION_REPRESENTATION(#40,#49) ;
#62=VERTEX_POINT('',#61) ;
#64=VERTEX_POINT('',#63) ;
#71=VERTEX_POINT('',#70) ;
#78=VERTEX_POINT('',#77) ;
#119=VERTEX_POINT('',#118) ;
#121=VERTEX_POINT('',#120) ;
#128=VERTEX_POINT('',#127) ;
#135=VERTEX_POINT('',#134) ;
#41=(LENGTH_UNIT()NAMED_UNIT(*)SI_UNIT(.MILLI.,.METRE.)) ;
#42=(NAMED_UNIT(*)PLANE_ANGLE_UNIT()SI_UNIT($,.RADIAN.)) ;
#44=(NAMED_UNIT(*)SI_UNIT($,.STERADIAN.)SOLID_ANGLE_UNIT()) ;
#46=(GEOMETRIC_REPRESENTATION_CONTEXT(3)GLOBAL_UNCERTAINTY_ASSIGNED_CONTEXT((#45))GLOBAL_UNIT_ASSIGNED_CONTEXT((#41,#42,#44))REPRESENTATION_CONTEXT(' ',' ')) ;
ENDSEC;
END-ISO-10303-21;
