ISO-10303-21;
HEADER;
/* Generated by software containing ST-Developer
 * from STEP Tools, Inc. (www.steptools.com) 
 */

FILE_DESCRIPTION(
/* description */ (''),
/* implementation_level */ '2;1');

FILE_NAME(
/* name */ 'bute direction v4.step',
/* time_stamp */ '2023-04-07T15:43:40+02:00',
/* author */ (''),
/* organization */ (''),
/* preprocessor_version */ 'ST-DEVELOPER v19.2',
/* originating_system */ 'Autodesk Translation Framework v12.4.0.73',
/* authorisation */ '');

FILE_SCHEMA (('AUTOMOTIVE_DESIGN { 1 0 10303 214 3 1 1 }'));
ENDSEC;

DATA;
#10=MECHANICAL_DESIGN_GEOMETRIC_PRESENTATION_REPRESENTATION('',(#13),#378);
#11=SHAPE_REPRESENTATION_RELATIONSHIP('SRR','None',#385,#12);
#12=ADVANCED_BREP_SHAPE_REPRESENTATION('',(#14),#377);
#13=STYLED_ITEM('',(#394),#14);
#14=MANIFOLD_SOLID_BREP('Corps1',#229);
#15=FACE_BOUND('',#51,.T.);
#16=FACE_BOUND('',#53,.T.);
#17=PLANE('',#246);
#18=PLANE('',#247);
#19=PLANE('',#248);
#20=PLANE('',#249);
#21=PLANE('',#250);
#22=PLANE('',#251);
#23=PLANE('',#252);
#24=PLANE('',#253);
#25=PLANE('',#254);
#26=PLANE('',#255);
#27=PLANE('',#256);
#28=FACE_OUTER_BOUND('',#40,.T.);
#29=FACE_OUTER_BOUND('',#41,.T.);
#30=FACE_OUTER_BOUND('',#42,.T.);
#31=FACE_OUTER_BOUND('',#43,.T.);
#32=FACE_OUTER_BOUND('',#44,.T.);
#33=FACE_OUTER_BOUND('',#45,.T.);
#34=FACE_OUTER_BOUND('',#46,.T.);
#35=FACE_OUTER_BOUND('',#47,.T.);
#36=FACE_OUTER_BOUND('',#48,.T.);
#37=FACE_OUTER_BOUND('',#49,.T.);
#38=FACE_OUTER_BOUND('',#50,.T.);
#39=FACE_OUTER_BOUND('',#52,.T.);
#40=EDGE_LOOP('',(#158,#159,#160,#161));
#41=EDGE_LOOP('',(#162,#163,#164,#165,#166));
#42=EDGE_LOOP('',(#167,#168,#169,#170,#171,#172));
#43=EDGE_LOOP('',(#173,#174,#175,#176));
#44=EDGE_LOOP('',(#177,#178,#179,#180));
#45=EDGE_LOOP('',(#181,#182,#183,#184));
#46=EDGE_LOOP('',(#185,#186,#187,#188));
#47=EDGE_LOOP('',(#189,#190,#191,#192,#193,#194,#195,#196));
#48=EDGE_LOOP('',(#197,#198,#199,#200,#201));
#49=EDGE_LOOP('',(#202,#203,#204,#205));
#50=EDGE_LOOP('',(#206,#207,#208,#209));
#51=EDGE_LOOP('',(#210));
#52=EDGE_LOOP('',(#211,#212,#213,#214));
#53=EDGE_LOOP('',(#215));
#54=LINE('',#319,#81);
#55=LINE('',#324,#82);
#56=LINE('',#326,#83);
#57=LINE('',#328,#84);
#58=LINE('',#330,#85);
#59=LINE('',#331,#86);
#60=LINE('',#334,#87);
#61=LINE('',#336,#88);
#62=LINE('',#338,#89);
#63=LINE('',#340,#90);
#64=LINE('',#341,#91);
#65=LINE('',#344,#92);
#66=LINE('',#346,#93);
#67=LINE('',#347,#94);
#68=LINE('',#350,#95);
#69=LINE('',#351,#96);
#70=LINE('',#354,#97);
#71=LINE('',#355,#98);
#72=LINE('',#358,#99);
#73=LINE('',#359,#100);
#74=LINE('',#363,#101);
#75=LINE('',#365,#102);
#76=LINE('',#366,#103);
#77=LINE('',#367,#104);
#78=LINE('',#369,#105);
#79=LINE('',#371,#106);
#80=LINE('',#372,#107);
#81=VECTOR('',#263,3.075);
#82=VECTOR('',#268,10.);
#83=VECTOR('',#269,10.);
#84=VECTOR('',#270,10.);
#85=VECTOR('',#271,10.);
#86=VECTOR('',#272,10.);
#87=VECTOR('',#275,10.);
#88=VECTOR('',#276,10.);
#89=VECTOR('',#277,10.);
#90=VECTOR('',#278,10.);
#91=VECTOR('',#279,10.);
#92=VECTOR('',#282,10.);
#93=VECTOR('',#283,10.);
#94=VECTOR('',#284,10.);
#95=VECTOR('',#287,10.);
#96=VECTOR('',#288,10.);
#97=VECTOR('',#291,10.);
#98=VECTOR('',#292,10.);
#99=VECTOR('',#295,10.);
#100=VECTOR('',#296,10.);
#101=VECTOR('',#299,10.);
#102=VECTOR('',#300,10.);
#103=VECTOR('',#301,10.);
#104=VECTOR('',#302,10.);
#105=VECTOR('',#305,10.);
#106=VECTOR('',#308,10.);
#107=VECTOR('',#309,10.);
#108=CIRCLE('',#244,3.075);
#109=CIRCLE('',#245,3.075);
#110=VERTEX_POINT('',#316);
#111=VERTEX_POINT('',#318);
#112=VERTEX_POINT('',#322);
#113=VERTEX_POINT('',#323);
#114=VERTEX_POINT('',#325);
#115=VERTEX_POINT('',#327);
#116=VERTEX_POINT('',#329);
#117=VERTEX_POINT('',#333);
#118=VERTEX_POINT('',#335);
#119=VERTEX_POINT('',#337);
#120=VERTEX_POINT('',#339);
#121=VERTEX_POINT('',#343);
#122=VERTEX_POINT('',#345);
#123=VERTEX_POINT('',#349);
#124=VERTEX_POINT('',#353);
#125=VERTEX_POINT('',#357);
#126=VERTEX_POINT('',#361);
#127=VERTEX_POINT('',#362);
#128=VERTEX_POINT('',#364);
#129=EDGE_CURVE('',#110,#110,#108,.T.);
#130=EDGE_CURVE('',#110,#111,#54,.T.);
#131=EDGE_CURVE('',#111,#111,#109,.T.);
#132=EDGE_CURVE('',#112,#113,#55,.T.);
#133=EDGE_CURVE('',#114,#112,#56,.T.);
#134=EDGE_CURVE('',#115,#114,#57,.T.);
#135=EDGE_CURVE('',#115,#116,#58,.T.);
#136=EDGE_CURVE('',#113,#116,#59,.T.);
#137=EDGE_CURVE('',#117,#116,#60,.T.);
#138=EDGE_CURVE('',#118,#117,#61,.T.);
#139=EDGE_CURVE('',#119,#118,#62,.T.);
#140=EDGE_CURVE('',#120,#119,#63,.T.);
#141=EDGE_CURVE('',#120,#113,#64,.T.);
#142=EDGE_CURVE('',#121,#114,#65,.T.);
#143=EDGE_CURVE('',#122,#121,#66,.T.);
#144=EDGE_CURVE('',#122,#115,#67,.T.);
#145=EDGE_CURVE('',#112,#123,#68,.T.);
#146=EDGE_CURVE('',#123,#121,#69,.T.);
#147=EDGE_CURVE('',#124,#116,#70,.T.);
#148=EDGE_CURVE('',#124,#122,#71,.T.);
#149=EDGE_CURVE('',#117,#125,#72,.T.);
#150=EDGE_CURVE('',#125,#124,#73,.T.);
#151=EDGE_CURVE('',#126,#127,#74,.T.);
#152=EDGE_CURVE('',#126,#128,#75,.T.);
#153=EDGE_CURVE('',#125,#128,#76,.T.);
#154=EDGE_CURVE('',#127,#123,#77,.T.);
#155=EDGE_CURVE('',#127,#120,#78,.T.);
#156=EDGE_CURVE('',#119,#126,#79,.T.);
#157=EDGE_CURVE('',#128,#118,#80,.T.);
#158=ORIENTED_EDGE('',*,*,#129,.F.);
#159=ORIENTED_EDGE('',*,*,#130,.T.);
#160=ORIENTED_EDGE('',*,*,#131,.F.);
#161=ORIENTED_EDGE('',*,*,#130,.F.);
#162=ORIENTED_EDGE('',*,*,#132,.F.);
#163=ORIENTED_EDGE('',*,*,#133,.F.);
#164=ORIENTED_EDGE('',*,*,#134,.F.);
#165=ORIENTED_EDGE('',*,*,#135,.T.);
#166=ORIENTED_EDGE('',*,*,#136,.F.);
#167=ORIENTED_EDGE('',*,*,#136,.T.);
#168=ORIENTED_EDGE('',*,*,#137,.F.);
#169=ORIENTED_EDGE('',*,*,#138,.F.);
#170=ORIENTED_EDGE('',*,*,#139,.F.);
#171=ORIENTED_EDGE('',*,*,#140,.F.);
#172=ORIENTED_EDGE('',*,*,#141,.T.);
#173=ORIENTED_EDGE('',*,*,#134,.T.);
#174=ORIENTED_EDGE('',*,*,#142,.F.);
#175=ORIENTED_EDGE('',*,*,#143,.F.);
#176=ORIENTED_EDGE('',*,*,#144,.T.);
#177=ORIENTED_EDGE('',*,*,#133,.T.);
#178=ORIENTED_EDGE('',*,*,#145,.T.);
#179=ORIENTED_EDGE('',*,*,#146,.T.);
#180=ORIENTED_EDGE('',*,*,#142,.T.);
#181=ORIENTED_EDGE('',*,*,#147,.T.);
#182=ORIENTED_EDGE('',*,*,#135,.F.);
#183=ORIENTED_EDGE('',*,*,#144,.F.);
#184=ORIENTED_EDGE('',*,*,#148,.F.);
#185=ORIENTED_EDGE('',*,*,#149,.F.);
#186=ORIENTED_EDGE('',*,*,#137,.T.);
#187=ORIENTED_EDGE('',*,*,#147,.F.);
#188=ORIENTED_EDGE('',*,*,#150,.F.);
#189=ORIENTED_EDGE('',*,*,#151,.F.);
#190=ORIENTED_EDGE('',*,*,#152,.T.);
#191=ORIENTED_EDGE('',*,*,#153,.F.);
#192=ORIENTED_EDGE('',*,*,#150,.T.);
#193=ORIENTED_EDGE('',*,*,#148,.T.);
#194=ORIENTED_EDGE('',*,*,#143,.T.);
#195=ORIENTED_EDGE('',*,*,#146,.F.);
#196=ORIENTED_EDGE('',*,*,#154,.F.);
#197=ORIENTED_EDGE('',*,*,#132,.T.);
#198=ORIENTED_EDGE('',*,*,#141,.F.);
#199=ORIENTED_EDGE('',*,*,#155,.F.);
#200=ORIENTED_EDGE('',*,*,#154,.T.);
#201=ORIENTED_EDGE('',*,*,#145,.F.);
#202=ORIENTED_EDGE('',*,*,#156,.F.);
#203=ORIENTED_EDGE('',*,*,#139,.T.);
#204=ORIENTED_EDGE('',*,*,#157,.F.);
#205=ORIENTED_EDGE('',*,*,#152,.F.);
#206=ORIENTED_EDGE('',*,*,#149,.T.);
#207=ORIENTED_EDGE('',*,*,#153,.T.);
#208=ORIENTED_EDGE('',*,*,#157,.T.);
#209=ORIENTED_EDGE('',*,*,#138,.T.);
#210=ORIENTED_EDGE('',*,*,#131,.T.);
#211=ORIENTED_EDGE('',*,*,#156,.T.);
#212=ORIENTED_EDGE('',*,*,#151,.T.);
#213=ORIENTED_EDGE('',*,*,#155,.T.);
#214=ORIENTED_EDGE('',*,*,#140,.T.);
#215=ORIENTED_EDGE('',*,*,#129,.T.);
#216=CYLINDRICAL_SURFACE('',#243,3.075);
#217=ADVANCED_FACE('',(#28),#216,.F.);
#218=ADVANCED_FACE('',(#29),#17,.F.);
#219=ADVANCED_FACE('',(#30),#18,.T.);
#220=ADVANCED_FACE('',(#31),#19,.T.);
#221=ADVANCED_FACE('',(#32),#20,.T.);
#222=ADVANCED_FACE('',(#33),#21,.F.);
#223=ADVANCED_FACE('',(#34),#22,.T.);
#224=ADVANCED_FACE('',(#35),#23,.T.);
#225=ADVANCED_FACE('',(#36),#24,.T.);
#226=ADVANCED_FACE('',(#37),#25,.T.);
#227=ADVANCED_FACE('',(#38,#15),#26,.T.);
#228=ADVANCED_FACE('',(#39,#16),#27,.F.);
#229=CLOSED_SHELL('',(#217,#218,#219,#220,#221,#222,#223,#224,#225,#226,
#227,#228));
#230=DERIVED_UNIT_ELEMENT(#232,1.);
#231=DERIVED_UNIT_ELEMENT(#380,-3.);
#232=(
MASS_UNIT()
NAMED_UNIT(*)
SI_UNIT(.KILO.,.GRAM.)
);
#233=DERIVED_UNIT((#230,#231));
#234=MEASURE_REPRESENTATION_ITEM('density measure',
POSITIVE_RATIO_MEASURE(7850.),#233);
#235=PROPERTY_DEFINITION_REPRESENTATION(#240,#237);
#236=PROPERTY_DEFINITION_REPRESENTATION(#241,#238);
#237=REPRESENTATION('material name',(#239),#377);
#238=REPRESENTATION('density',(#234),#377);
#239=DESCRIPTIVE_REPRESENTATION_ITEM('Acier','Acier');
#240=PROPERTY_DEFINITION('material property','material name',#387);
#241=PROPERTY_DEFINITION('material property','density of part',#387);
#242=AXIS2_PLACEMENT_3D('',#314,#257,#258);
#243=AXIS2_PLACEMENT_3D('',#315,#259,#260);
#244=AXIS2_PLACEMENT_3D('',#317,#261,#262);
#245=AXIS2_PLACEMENT_3D('',#320,#264,#265);
#246=AXIS2_PLACEMENT_3D('',#321,#266,#267);
#247=AXIS2_PLACEMENT_3D('',#332,#273,#274);
#248=AXIS2_PLACEMENT_3D('',#342,#280,#281);
#249=AXIS2_PLACEMENT_3D('',#348,#285,#286);
#250=AXIS2_PLACEMENT_3D('',#352,#289,#290);
#251=AXIS2_PLACEMENT_3D('',#356,#293,#294);
#252=AXIS2_PLACEMENT_3D('',#360,#297,#298);
#253=AXIS2_PLACEMENT_3D('',#368,#303,#304);
#254=AXIS2_PLACEMENT_3D('',#370,#306,#307);
#255=AXIS2_PLACEMENT_3D('',#373,#310,#311);
#256=AXIS2_PLACEMENT_3D('',#374,#312,#313);
#257=DIRECTION('axis',(0.,0.,1.));
#258=DIRECTION('refdir',(1.,0.,0.));
#259=DIRECTION('center_axis',(1.,0.,0.));
#260=DIRECTION('ref_axis',(0.,1.,0.));
#261=DIRECTION('center_axis',(1.,0.,0.));
#262=DIRECTION('ref_axis',(0.,1.,0.));
#263=DIRECTION('',(1.,0.,0.));
#264=DIRECTION('center_axis',(-1.,0.,0.));
#265=DIRECTION('ref_axis',(0.,1.,0.));
#266=DIRECTION('center_axis',(-0.384615386568746,0.923076922263023,0.));
#267=DIRECTION('ref_axis',(0.923076922263023,0.384615386568746,0.));
#268=DIRECTION('',(-0.923076922263023,-0.384615386568746,0.));
#269=DIRECTION('',(0.,0.,-1.));
#270=DIRECTION('',(0.923076922263023,0.384615386568746,0.));
#271=DIRECTION('',(0.,0.,-1.));
#272=DIRECTION('',(0.,0.,1.));
#273=DIRECTION('center_axis',(0.,-1.,0.));
#274=DIRECTION('ref_axis',(0.,0.,-1.));
#275=DIRECTION('',(1.,0.,0.));
#276=DIRECTION('',(0.,0.,-1.));
#277=DIRECTION('',(1.,0.,0.));
#278=DIRECTION('',(0.,0.,1.));
#279=DIRECTION('',(1.,0.,0.));
#280=DIRECTION('center_axis',(0.,0.,1.));
#281=DIRECTION('ref_axis',(0.,-1.,0.));
#282=DIRECTION('',(0.,-1.,0.));
#283=DIRECTION('',(1.,0.,0.));
#284=DIRECTION('',(0.,-1.,0.));
#285=DIRECTION('center_axis',(1.,0.,0.));
#286=DIRECTION('ref_axis',(0.,0.,-1.));
#287=DIRECTION('',(0.,1.,0.));
#288=DIRECTION('',(0.,0.,1.));
#289=DIRECTION('center_axis',(1.,0.,0.));
#290=DIRECTION('ref_axis',(0.,1.,0.));
#291=DIRECTION('',(0.,-1.,0.));
#292=DIRECTION('',(0.,0.,1.));
#293=DIRECTION('center_axis',(0.,0.,1.));
#294=DIRECTION('ref_axis',(0.,-1.,0.));
#295=DIRECTION('',(0.,1.,0.));
#296=DIRECTION('',(1.,0.,0.));
#297=DIRECTION('center_axis',(0.,1.,0.));
#298=DIRECTION('ref_axis',(0.,0.,1.));
#299=DIRECTION('',(0.,0.,-1.));
#300=DIRECTION('',(1.,0.,0.));
#301=DIRECTION('',(0.,0.,1.));
#302=DIRECTION('',(1.,0.,0.));
#303=DIRECTION('center_axis',(0.,0.,-1.));
#304=DIRECTION('ref_axis',(0.,1.,0.));
#305=DIRECTION('',(0.,-1.,0.));
#306=DIRECTION('center_axis',(0.,0.,1.));
#307=DIRECTION('ref_axis',(0.,-1.,0.));
#308=DIRECTION('',(0.,1.,0.));
#309=DIRECTION('',(0.,-1.,0.));
#310=DIRECTION('center_axis',(1.,0.,0.));
#311=DIRECTION('ref_axis',(0.,0.,-1.));
#312=DIRECTION('center_axis',(1.,0.,0.));
#313=DIRECTION('ref_axis',(0.,1.,0.));
#314=CARTESIAN_POINT('',(0.,0.,0.));
#315=CARTESIAN_POINT('Origin',(0.,-2.5,-2.50000007450581));
#316=CARTESIAN_POINT('',(0.,-5.575,-2.50000007450581));
#317=CARTESIAN_POINT('Origin',(0.,-2.5,-2.50000007450581));
#318=CARTESIAN_POINT('',(2.,-5.575,-2.50000007450581));
#319=CARTESIAN_POINT('',(0.,-5.575,-2.50000007450581));
#320=CARTESIAN_POINT('Origin',(2.,-2.5,-2.50000007450581));
#321=CARTESIAN_POINT('Origin',(12.,-15.,-8.));
#322=CARTESIAN_POINT('',(42.,-2.49999992549419,-15.));
#323=CARTESIAN_POINT('',(12.,-15.,-15.));
#324=CARTESIAN_POINT('',(6.88757397351255,-17.1301775237333,-15.));
#325=CARTESIAN_POINT('',(42.,-2.49999992549419,-8.));
#326=CARTESIAN_POINT('',(42.,-2.49999992549419,-9.75));
#327=CARTESIAN_POINT('',(12.,-15.,-8.));
#328=CARTESIAN_POINT('',(16.4378698675628,-13.1508875441606,-8.));
#329=CARTESIAN_POINT('',(12.,-15.,-10.0000001490116));
#330=CARTESIAN_POINT('',(12.,-15.,-8.));
#331=CARTESIAN_POINT('',(12.,-15.,-1.5));
#332=CARTESIAN_POINT('Origin',(0.,-15.,5.));
#333=CARTESIAN_POINT('',(2.,-15.,-10.0000001490116));
#334=CARTESIAN_POINT('',(2.,-15.,-10.0000001490116));
#335=CARTESIAN_POINT('',(2.,-15.,5.));
#336=CARTESIAN_POINT('',(2.,-15.,-15.));
#337=CARTESIAN_POINT('',(0.,-15.,5.));
#338=CARTESIAN_POINT('',(0.,-15.,5.));
#339=CARTESIAN_POINT('',(0.,-15.,-15.));
#340=CARTESIAN_POINT('',(0.,-15.,-15.));
#341=CARTESIAN_POINT('',(0.,-15.,-15.));
#342=CARTESIAN_POINT('Origin',(12.,10.0000001490116,-8.));
#343=CARTESIAN_POINT('',(42.,10.0000001490116,-8.));
#344=CARTESIAN_POINT('',(42.,10.0000001490116,-8.));
#345=CARTESIAN_POINT('',(12.,10.0000001490116,-8.));
#346=CARTESIAN_POINT('',(12.,10.0000001490116,-8.));
#347=CARTESIAN_POINT('',(12.,10.0000001490116,-8.));
#348=CARTESIAN_POINT('Origin',(42.,-2.49999992549419,-11.5));
#349=CARTESIAN_POINT('',(42.,10.0000001490116,-15.));
#350=CARTESIAN_POINT('',(42.,-15.,-15.));
#351=CARTESIAN_POINT('',(42.,10.0000001490116,-15.));
#352=CARTESIAN_POINT('Origin',(12.,-2.49999992549419,-11.5));
#353=CARTESIAN_POINT('',(12.,10.,-10.0000001490116));
#354=CARTESIAN_POINT('',(12.,10.,-10.0000001490116));
#355=CARTESIAN_POINT('',(12.,10.0000001490116,-15.));
#356=CARTESIAN_POINT('Origin',(2.,10.,-10.0000001490116));
#357=CARTESIAN_POINT('',(2.,10.,-10.0000001490116));
#358=CARTESIAN_POINT('',(2.,3.75,-10.0000001490116));
#359=CARTESIAN_POINT('',(2.,10.,-10.0000001490116));
#360=CARTESIAN_POINT('Origin',(0.,10.,-15.));
#361=CARTESIAN_POINT('',(0.,10.,5.));
#362=CARTESIAN_POINT('',(0.,10.,-15.));
#363=CARTESIAN_POINT('',(0.,10.,5.));
#364=CARTESIAN_POINT('',(2.,10.,5.));
#365=CARTESIAN_POINT('',(0.,10.,5.));
#366=CARTESIAN_POINT('',(2.,10.,5.));
#367=CARTESIAN_POINT('',(0.,10.,-15.));
#368=CARTESIAN_POINT('Origin',(0.,-15.,-15.));
#369=CARTESIAN_POINT('',(0.,10.,-15.));
#370=CARTESIAN_POINT('Origin',(0.,10.,5.));
#371=CARTESIAN_POINT('',(0.,0.575000000000002,5.));
#372=CARTESIAN_POINT('',(2.,0.575000000000002,5.));
#373=CARTESIAN_POINT('Origin',(2.,-2.5,-5.));
#374=CARTESIAN_POINT('Origin',(0.,-2.5,-5.));
#375=UNCERTAINTY_MEASURE_WITH_UNIT(LENGTH_MEASURE(0.01),#379,
'DISTANCE_ACCURACY_VALUE',
'Maximum model space distance between geometric entities at asserted c
onnectivities');
#376=UNCERTAINTY_MEASURE_WITH_UNIT(LENGTH_MEASURE(0.01),#379,
'DISTANCE_ACCURACY_VALUE',
'Maximum model space distance between geometric entities at asserted c
onnectivities');
#377=(
GEOMETRIC_REPRESENTATION_CONTEXT(3)
GLOBAL_UNCERTAINTY_ASSIGNED_CONTEXT((#375))
GLOBAL_UNIT_ASSIGNED_CONTEXT((#379,#381,#382))
REPRESENTATION_CONTEXT('','3D')
);
#378=(
GEOMETRIC_REPRESENTATION_CONTEXT(3)
GLOBAL_UNCERTAINTY_ASSIGNED_CONTEXT((#376))
GLOBAL_UNIT_ASSIGNED_CONTEXT((#379,#381,#382))
REPRESENTATION_CONTEXT('','3D')
);
#379=(
LENGTH_UNIT()
NAMED_UNIT(*)
SI_UNIT(.MILLI.,.METRE.)
);
#380=(
LENGTH_UNIT()
NAMED_UNIT(*)
SI_UNIT($,.METRE.)
);
#381=(
NAMED_UNIT(*)
PLANE_ANGLE_UNIT()
SI_UNIT($,.RADIAN.)
);
#382=(
NAMED_UNIT(*)
SI_UNIT($,.STERADIAN.)
SOLID_ANGLE_UNIT()
);
#383=SHAPE_DEFINITION_REPRESENTATION(#384,#385);
#384=PRODUCT_DEFINITION_SHAPE('',$,#387);
#385=SHAPE_REPRESENTATION('',(#242),#377);
#386=PRODUCT_DEFINITION_CONTEXT('part definition',#391,'design');
#387=PRODUCT_DEFINITION('bute direction','bute direction v4',#388,#386);
#388=PRODUCT_DEFINITION_FORMATION('',$,#393);
#389=PRODUCT_RELATED_PRODUCT_CATEGORY('bute direction v4',
'bute direction v4',(#393));
#390=APPLICATION_PROTOCOL_DEFINITION('international standard',
'automotive_design',2009,#391);
#391=APPLICATION_CONTEXT(
'Core Data for Automotive Mechanical Design Process');
#392=PRODUCT_CONTEXT('part definition',#391,'mechanical');
#393=PRODUCT('bute direction','bute direction v4',$,(#392));
#394=PRESENTATION_STYLE_ASSIGNMENT((#395));
#395=SURFACE_STYLE_USAGE(.BOTH.,#396);
#396=SURFACE_SIDE_STYLE('',(#397));
#397=SURFACE_STYLE_FILL_AREA(#398);
#398=FILL_AREA_STYLE('Acier - Satin\X\E9',(#399));
#399=FILL_AREA_STYLE_COLOUR('Acier - Satin\X\E9',#400);
#400=COLOUR_RGB('Acier - Satin\X\E9',0.627450980392157,0.627450980392157,
0.627450980392157);
ENDSEC;
END-ISO-10303-21;
