ISO-10303-21;
HEADER;
/* Generated by software containing ST-Developer
 * from STEP Tools, Inc. (www.steptools.com) 
 */

FILE_DESCRIPTION(
/* description */ (''),
/* implementation_level */ '2;1');

FILE_NAME(
/* name */ 'CYL.step',
/* time_stamp */ '2023-04-10T10:27:47+02:00',
/* author */ (''),
/* organization */ (''),
/* preprocessor_version */ 'ST-DEVELOPER v19.2',
/* originating_system */ 'Autodesk Translation Framework v12.4.0.73',
/* authorisation */ '');

FILE_SCHEMA (('AUTOMOTIVE_DESIGN { 1 0 10303 214 3 1 1 }'));
ENDSEC;

DATA;
#10=MECHANICAL_DESIGN_GEOMETRIC_PRESENTATION_REPRESENTATION('',(#13),#500);
#11=SHAPE_REPRESENTATION_RELATIONSHIP('SRR','None',#507,#12);
#12=ADVANCED_BREP_SHAPE_REPRESENTATION('',(#14),#499);
#13=STYLED_ITEM('',(#516),#14);
#14=MANIFOLD_SOLID_BREP('Corps1',#248);
#15=B_SPLINE_CURVE_WITH_KNOTS('',3,(#368,#369,#370,#371,#372,#373,#374,
#375,#376,#377),.UNSPECIFIED.,.F.,.F.,(4,2,2,2,4),(0.47873287874374,0.598839467457382,
0.718946056171024,0.811334467606806,0.903722879042588),.UNSPECIFIED.);
#16=B_SPLINE_CURVE_WITH_KNOTS('',3,(#381,#382,#383,#384,#385,#386,#387,
#388,#389,#390),.UNSPECIFIED.,.F.,.F.,(4,2,2,2,4),(0.903722879042588,0.99611129047837,
1.08849970191415,1.20860629062779,1.32871287934144),.UNSPECIFIED.);
#17=B_SPLINE_CURVE_WITH_KNOTS('',3,(#400,#401,#402,#403,#404,#405,#406,
#407,#408,#409),.UNSPECIFIED.,.F.,.F.,(4,2,2,2,4),(0.779037772022331,0.873549527120917,
0.968061282219503,1.07112364592755,1.17418600963559),.UNSPECIFIED.);
#18=B_SPLINE_CURVE_WITH_KNOTS('',3,(#412,#413,#414,#415,#416,#417,#418,
#419,#420,#421),.UNSPECIFIED.,.F.,.F.,(4,2,2,2,4),(0.383889534409071,0.486951898117116,
0.59001426182516,0.684526016923746,0.779037772022331),.UNSPECIFIED.);
#19=B_SPLINE_CURVE_WITH_KNOTS('',3,(#425,#426,#427,#428,#429,#430,#431,
#432,#433,#434),.UNSPECIFIED.,.F.,.F.,(4,2,2,2,4),(0.779037772022331,0.873549527120917,
0.968061282219503,1.07112364592755,1.17418600963559),.UNSPECIFIED.);
#20=B_SPLINE_CURVE_WITH_KNOTS('',3,(#438,#439,#440,#441,#442,#443,#444,
#445,#446,#447),.UNSPECIFIED.,.F.,.F.,(4,2,2,2,4),(0.383889534409071,0.486951898117116,
0.59001426182516,0.684526016923746,0.779037772022331),.UNSPECIFIED.);
#21=B_SPLINE_CURVE_WITH_KNOTS('',3,(#455,#456,#457,#458,#459,#460,#461,
#462,#463,#464),.UNSPECIFIED.,.F.,.F.,(4,2,2,2,4),(0.47873287874374,0.598839467457382,
0.718946056171024,0.811334467606806,0.903722879042588),.UNSPECIFIED.);
#22=B_SPLINE_CURVE_WITH_KNOTS('',3,(#473,#474,#475,#476,#477,#478,#479,
#480,#481,#482),.UNSPECIFIED.,.F.,.F.,(4,2,2,2,4),(0.903722879042588,0.99611129047837,
1.08849970191415,1.20860629062779,1.32871287934144),.UNSPECIFIED.);
#23=LINE('',#362,#38);
#24=LINE('',#379,#39);
#25=LINE('',#391,#40);
#26=LINE('',#394,#41);
#27=LINE('',#396,#42);
#28=LINE('',#397,#43);
#29=LINE('',#411,#44);
#30=LINE('',#436,#45);
#31=LINE('',#448,#46);
#32=LINE('',#453,#47);
#33=LINE('',#468,#48);
#34=LINE('',#483,#49);
#35=LINE('',#487,#50);
#36=LINE('',#488,#51);
#37=LINE('',#496,#52);
#38=VECTOR('',#297,3.);
#39=VECTOR('',#304,10.);
#40=VECTOR('',#305,10.);
#41=VECTOR('',#308,10.);
#42=VECTOR('',#309,10.);
#43=VECTOR('',#310,10.);
#44=VECTOR('',#313,10.);
#45=VECTOR('',#316,10.);
#46=VECTOR('',#317,10.);
#47=VECTOR('',#324,10.);
#48=VECTOR('',#327,15.);
#49=VECTOR('',#332,10.);
#50=VECTOR('',#339,10.);
#51=VECTOR('',#340,10.);
#52=VECTOR('',#353,10.);
#53=CYLINDRICAL_SURFACE('',#265,3.);
#54=CYLINDRICAL_SURFACE('',#268,2.5);
#55=CYLINDRICAL_SURFACE('',#270,2.5);
#56=CYLINDRICAL_SURFACE('',#271,2.5);
#57=CYLINDRICAL_SURFACE('',#272,15.);
#58=CYLINDRICAL_SURFACE('',#280,2.5);
#59=CYLINDRICAL_SURFACE('',#286,10.);
#60=FACE_BOUND('',#78,.T.);
#61=FACE_BOUND('',#92,.T.);
#62=FACE_OUTER_BOUND('',#77,.T.);
#63=FACE_OUTER_BOUND('',#79,.T.);
#64=FACE_OUTER_BOUND('',#80,.T.);
#65=FACE_OUTER_BOUND('',#81,.T.);
#66=FACE_OUTER_BOUND('',#82,.T.);
#67=FACE_OUTER_BOUND('',#83,.T.);
#68=FACE_OUTER_BOUND('',#84,.T.);
#69=FACE_OUTER_BOUND('',#85,.T.);
#70=FACE_OUTER_BOUND('',#86,.T.);
#71=FACE_OUTER_BOUND('',#87,.T.);
#72=FACE_OUTER_BOUND('',#88,.T.);
#73=FACE_OUTER_BOUND('',#89,.T.);
#74=FACE_OUTER_BOUND('',#90,.T.);
#75=FACE_OUTER_BOUND('',#91,.T.);
#76=FACE_OUTER_BOUND('',#93,.T.);
#77=EDGE_LOOP('',(#159));
#78=EDGE_LOOP('',(#160));
#79=EDGE_LOOP('',(#161,#162,#163,#164));
#80=EDGE_LOOP('',(#165));
#81=EDGE_LOOP('',(#166,#167,#168,#169));
#82=EDGE_LOOP('',(#170,#171,#172,#173));
#83=EDGE_LOOP('',(#174,#175,#176,#177));
#84=EDGE_LOOP('',(#178,#179,#180,#181));
#85=EDGE_LOOP('',(#182,#183,#184,#185,#186,#187,#188,#189,#190,#191,#192,
#193,#194,#195,#196,#197,#198,#199,#200,#201));
#86=EDGE_LOOP('',(#202,#203,#204,#205));
#87=EDGE_LOOP('',(#206,#207,#208,#209));
#88=EDGE_LOOP('',(#210,#211,#212,#213));
#89=EDGE_LOOP('',(#214,#215));
#90=EDGE_LOOP('',(#216,#217,#218));
#91=EDGE_LOOP('',(#219));
#92=EDGE_LOOP('',(#220));
#93=EDGE_LOOP('',(#221,#222,#223,#224));
#94=CIRCLE('',#263,10.);
#95=CIRCLE('',#264,3.);
#96=CIRCLE('',#266,3.);
#97=CIRCLE('',#273,15.);
#98=CIRCLE('',#274,15.);
#99=CIRCLE('',#275,15.);
#100=CIRCLE('',#276,15.);
#101=CIRCLE('',#277,15.);
#102=CIRCLE('',#278,15.);
#103=CIRCLE('',#285,10.);
#104=VERTEX_POINT('',#356);
#105=VERTEX_POINT('',#358);
#106=VERTEX_POINT('',#361);
#107=VERTEX_POINT('',#366);
#108=VERTEX_POINT('',#367);
#109=VERTEX_POINT('',#378);
#110=VERTEX_POINT('',#380);
#111=VERTEX_POINT('',#393);
#112=VERTEX_POINT('',#395);
#113=VERTEX_POINT('',#399);
#114=VERTEX_POINT('',#410);
#115=VERTEX_POINT('',#423);
#116=VERTEX_POINT('',#424);
#117=VERTEX_POINT('',#435);
#118=VERTEX_POINT('',#437);
#119=VERTEX_POINT('',#452);
#120=VERTEX_POINT('',#454);
#121=VERTEX_POINT('',#465);
#122=VERTEX_POINT('',#467);
#123=VERTEX_POINT('',#470);
#124=VERTEX_POINT('',#472);
#125=VERTEX_POINT('',#493);
#126=EDGE_CURVE('',#104,#104,#94,.T.);
#127=EDGE_CURVE('',#105,#105,#95,.T.);
#128=EDGE_CURVE('',#105,#106,#23,.T.);
#129=EDGE_CURVE('',#106,#106,#96,.T.);
#130=EDGE_CURVE('',#107,#108,#15,.T.);
#131=EDGE_CURVE('',#108,#109,#24,.T.);
#132=EDGE_CURVE('',#109,#110,#16,.T.);
#133=EDGE_CURVE('',#110,#107,#25,.T.);
#134=EDGE_CURVE('',#108,#111,#26,.T.);
#135=EDGE_CURVE('',#112,#111,#27,.T.);
#136=EDGE_CURVE('',#109,#112,#28,.T.);
#137=EDGE_CURVE('',#111,#113,#17,.T.);
#138=EDGE_CURVE('',#113,#114,#29,.T.);
#139=EDGE_CURVE('',#114,#112,#18,.T.);
#140=EDGE_CURVE('',#115,#116,#19,.T.);
#141=EDGE_CURVE('',#116,#117,#30,.T.);
#142=EDGE_CURVE('',#117,#118,#20,.T.);
#143=EDGE_CURVE('',#118,#115,#31,.T.);
#144=EDGE_CURVE('',#110,#107,#97,.T.);
#145=EDGE_CURVE('',#116,#114,#98,.T.);
#146=EDGE_CURVE('',#119,#115,#32,.T.);
#147=EDGE_CURVE('',#120,#119,#21,.T.);
#148=EDGE_CURVE('',#121,#120,#99,.T.);
#149=EDGE_CURVE('',#121,#122,#33,.T.);
#150=EDGE_CURVE('',#122,#122,#100,.T.);
#151=EDGE_CURVE('',#123,#121,#101,.T.);
#152=EDGE_CURVE('',#124,#123,#22,.T.);
#153=EDGE_CURVE('',#124,#118,#34,.T.);
#154=EDGE_CURVE('',#113,#117,#102,.T.);
#155=EDGE_CURVE('',#119,#124,#35,.T.);
#156=EDGE_CURVE('',#123,#120,#36,.T.);
#157=EDGE_CURVE('',#125,#125,#103,.T.);
#158=EDGE_CURVE('',#104,#125,#37,.T.);
#159=ORIENTED_EDGE('',*,*,#126,.T.);
#160=ORIENTED_EDGE('',*,*,#127,.T.);
#161=ORIENTED_EDGE('',*,*,#127,.F.);
#162=ORIENTED_EDGE('',*,*,#128,.T.);
#163=ORIENTED_EDGE('',*,*,#129,.T.);
#164=ORIENTED_EDGE('',*,*,#128,.F.);
#165=ORIENTED_EDGE('',*,*,#129,.F.);
#166=ORIENTED_EDGE('',*,*,#130,.T.);
#167=ORIENTED_EDGE('',*,*,#131,.T.);
#168=ORIENTED_EDGE('',*,*,#132,.T.);
#169=ORIENTED_EDGE('',*,*,#133,.T.);
#170=ORIENTED_EDGE('',*,*,#131,.F.);
#171=ORIENTED_EDGE('',*,*,#134,.T.);
#172=ORIENTED_EDGE('',*,*,#135,.F.);
#173=ORIENTED_EDGE('',*,*,#136,.F.);
#174=ORIENTED_EDGE('',*,*,#137,.T.);
#175=ORIENTED_EDGE('',*,*,#138,.T.);
#176=ORIENTED_EDGE('',*,*,#139,.T.);
#177=ORIENTED_EDGE('',*,*,#135,.T.);
#178=ORIENTED_EDGE('',*,*,#140,.T.);
#179=ORIENTED_EDGE('',*,*,#141,.T.);
#180=ORIENTED_EDGE('',*,*,#142,.T.);
#181=ORIENTED_EDGE('',*,*,#143,.T.);
#182=ORIENTED_EDGE('',*,*,#137,.F.);
#183=ORIENTED_EDGE('',*,*,#134,.F.);
#184=ORIENTED_EDGE('',*,*,#130,.F.);
#185=ORIENTED_EDGE('',*,*,#144,.F.);
#186=ORIENTED_EDGE('',*,*,#132,.F.);
#187=ORIENTED_EDGE('',*,*,#136,.T.);
#188=ORIENTED_EDGE('',*,*,#139,.F.);
#189=ORIENTED_EDGE('',*,*,#145,.F.);
#190=ORIENTED_EDGE('',*,*,#140,.F.);
#191=ORIENTED_EDGE('',*,*,#146,.F.);
#192=ORIENTED_EDGE('',*,*,#147,.F.);
#193=ORIENTED_EDGE('',*,*,#148,.F.);
#194=ORIENTED_EDGE('',*,*,#149,.T.);
#195=ORIENTED_EDGE('',*,*,#150,.T.);
#196=ORIENTED_EDGE('',*,*,#149,.F.);
#197=ORIENTED_EDGE('',*,*,#151,.F.);
#198=ORIENTED_EDGE('',*,*,#152,.F.);
#199=ORIENTED_EDGE('',*,*,#153,.T.);
#200=ORIENTED_EDGE('',*,*,#142,.F.);
#201=ORIENTED_EDGE('',*,*,#154,.F.);
#202=ORIENTED_EDGE('',*,*,#138,.F.);
#203=ORIENTED_EDGE('',*,*,#154,.T.);
#204=ORIENTED_EDGE('',*,*,#141,.F.);
#205=ORIENTED_EDGE('',*,*,#145,.T.);
#206=ORIENTED_EDGE('',*,*,#147,.T.);
#207=ORIENTED_EDGE('',*,*,#155,.T.);
#208=ORIENTED_EDGE('',*,*,#152,.T.);
#209=ORIENTED_EDGE('',*,*,#156,.T.);
#210=ORIENTED_EDGE('',*,*,#143,.F.);
#211=ORIENTED_EDGE('',*,*,#153,.F.);
#212=ORIENTED_EDGE('',*,*,#155,.F.);
#213=ORIENTED_EDGE('',*,*,#146,.T.);
#214=ORIENTED_EDGE('',*,*,#133,.F.);
#215=ORIENTED_EDGE('',*,*,#144,.T.);
#216=ORIENTED_EDGE('',*,*,#156,.F.);
#217=ORIENTED_EDGE('',*,*,#151,.T.);
#218=ORIENTED_EDGE('',*,*,#148,.T.);
#219=ORIENTED_EDGE('',*,*,#150,.F.);
#220=ORIENTED_EDGE('',*,*,#157,.F.);
#221=ORIENTED_EDGE('',*,*,#126,.F.);
#222=ORIENTED_EDGE('',*,*,#158,.T.);
#223=ORIENTED_EDGE('',*,*,#157,.T.);
#224=ORIENTED_EDGE('',*,*,#158,.F.);
#225=PLANE('',#262);
#226=PLANE('',#267);
#227=PLANE('',#269);
#228=PLANE('',#279);
#229=PLANE('',#281);
#230=PLANE('',#282);
#231=PLANE('',#283);
#232=PLANE('',#284);
#233=ADVANCED_FACE('',(#62,#60),#225,.T.);
#234=ADVANCED_FACE('',(#63),#53,.F.);
#235=ADVANCED_FACE('',(#64),#226,.T.);
#236=ADVANCED_FACE('',(#65),#54,.F.);
#237=ADVANCED_FACE('',(#66),#227,.T.);
#238=ADVANCED_FACE('',(#67),#55,.T.);
#239=ADVANCED_FACE('',(#68),#56,.T.);
#240=ADVANCED_FACE('',(#69),#57,.T.);
#241=ADVANCED_FACE('',(#70),#228,.T.);
#242=ADVANCED_FACE('',(#71),#58,.F.);
#243=ADVANCED_FACE('',(#72),#229,.T.);
#244=ADVANCED_FACE('',(#73),#230,.T.);
#245=ADVANCED_FACE('',(#74),#231,.T.);
#246=ADVANCED_FACE('',(#75,#61),#232,.F.);
#247=ADVANCED_FACE('',(#76),#59,.T.);
#248=CLOSED_SHELL('',(#233,#234,#235,#236,#237,#238,#239,#240,#241,#242,
#243,#244,#245,#246,#247));
#249=DERIVED_UNIT_ELEMENT(#251,1.);
#250=DERIVED_UNIT_ELEMENT(#502,-3.);
#251=(
MASS_UNIT()
NAMED_UNIT(*)
SI_UNIT(.KILO.,.GRAM.)
);
#252=DERIVED_UNIT((#249,#250));
#253=MEASURE_REPRESENTATION_ITEM('density measure',
POSITIVE_RATIO_MEASURE(7850.),#252);
#254=PROPERTY_DEFINITION_REPRESENTATION(#259,#256);
#255=PROPERTY_DEFINITION_REPRESENTATION(#260,#257);
#256=REPRESENTATION('material name',(#258),#499);
#257=REPRESENTATION('density',(#253),#499);
#258=DESCRIPTIVE_REPRESENTATION_ITEM('Acier','Acier');
#259=PROPERTY_DEFINITION('material property','material name',#509);
#260=PROPERTY_DEFINITION('material property','density of part',#509);
#261=AXIS2_PLACEMENT_3D('',#354,#287,#288);
#262=AXIS2_PLACEMENT_3D('',#355,#289,#290);
#263=AXIS2_PLACEMENT_3D('',#357,#291,#292);
#264=AXIS2_PLACEMENT_3D('',#359,#293,#294);
#265=AXIS2_PLACEMENT_3D('',#360,#295,#296);
#266=AXIS2_PLACEMENT_3D('',#363,#298,#299);
#267=AXIS2_PLACEMENT_3D('',#364,#300,#301);
#268=AXIS2_PLACEMENT_3D('',#365,#302,#303);
#269=AXIS2_PLACEMENT_3D('',#392,#306,#307);
#270=AXIS2_PLACEMENT_3D('',#398,#311,#312);
#271=AXIS2_PLACEMENT_3D('',#422,#314,#315);
#272=AXIS2_PLACEMENT_3D('',#449,#318,#319);
#273=AXIS2_PLACEMENT_3D('',#450,#320,#321);
#274=AXIS2_PLACEMENT_3D('',#451,#322,#323);
#275=AXIS2_PLACEMENT_3D('',#466,#325,#326);
#276=AXIS2_PLACEMENT_3D('',#469,#328,#329);
#277=AXIS2_PLACEMENT_3D('',#471,#330,#331);
#278=AXIS2_PLACEMENT_3D('',#484,#333,#334);
#279=AXIS2_PLACEMENT_3D('',#485,#335,#336);
#280=AXIS2_PLACEMENT_3D('',#486,#337,#338);
#281=AXIS2_PLACEMENT_3D('',#489,#341,#342);
#282=AXIS2_PLACEMENT_3D('',#490,#343,#344);
#283=AXIS2_PLACEMENT_3D('',#491,#345,#346);
#284=AXIS2_PLACEMENT_3D('',#492,#347,#348);
#285=AXIS2_PLACEMENT_3D('',#494,#349,#350);
#286=AXIS2_PLACEMENT_3D('',#495,#351,#352);
#287=DIRECTION('axis',(0.,0.,1.));
#288=DIRECTION('refdir',(1.,0.,0.));
#289=DIRECTION('center_axis',(0.,0.,1.));
#290=DIRECTION('ref_axis',(1.,0.,0.));
#291=DIRECTION('center_axis',(0.,0.,1.));
#292=DIRECTION('ref_axis',(1.,0.,0.));
#293=DIRECTION('center_axis',(0.,0.,-1.));
#294=DIRECTION('ref_axis',(-1.,0.,0.));
#295=DIRECTION('center_axis',(0.,0.,-1.));
#296=DIRECTION('ref_axis',(-1.,0.,0.));
#297=DIRECTION('',(0.,0.,-1.));
#298=DIRECTION('center_axis',(0.,0.,-1.));
#299=DIRECTION('ref_axis',(-1.,0.,0.));
#300=DIRECTION('center_axis',(0.,0.,1.));
#301=DIRECTION('ref_axis',(-1.,0.,0.));
#302=DIRECTION('center_axis',(0.,1.,0.));
#303=DIRECTION('ref_axis',(-0.707106781186547,0.,0.707106781186547));
#304=DIRECTION('',(0.,1.,0.));
#305=DIRECTION('',(0.,-1.,0.));
#306=DIRECTION('center_axis',(1.,0.,0.));
#307=DIRECTION('ref_axis',(0.,-1.,0.));
#308=DIRECTION('',(0.,0.,-1.));
#309=DIRECTION('',(0.,-1.,0.));
#310=DIRECTION('',(0.,0.,-1.));
#311=DIRECTION('center_axis',(0.,-1.,0.));
#312=DIRECTION('ref_axis',(0.707106781186547,0.,-0.707106781186547));
#313=DIRECTION('',(0.,1.,0.));
#314=DIRECTION('center_axis',(0.,1.,0.));
#315=DIRECTION('ref_axis',(-0.707106781186547,0.,-0.707106781186547));
#316=DIRECTION('',(0.,-1.,0.));
#317=DIRECTION('',(0.,1.,0.));
#318=DIRECTION('center_axis',(0.,0.,-1.));
#319=DIRECTION('ref_axis',(1.,0.,0.));
#320=DIRECTION('center_axis',(0.,0.,-1.));
#321=DIRECTION('ref_axis',(1.,0.,0.));
#322=DIRECTION('center_axis',(0.,0.,-1.));
#323=DIRECTION('ref_axis',(1.,0.,0.));
#324=DIRECTION('',(0.,0.,-1.));
#325=DIRECTION('center_axis',(0.,0.,-1.));
#326=DIRECTION('ref_axis',(1.,0.,0.));
#327=DIRECTION('',(0.,0.,1.));
#328=DIRECTION('center_axis',(0.,0.,-1.));
#329=DIRECTION('ref_axis',(1.,0.,0.));
#330=DIRECTION('center_axis',(0.,0.,-1.));
#331=DIRECTION('ref_axis',(1.,0.,0.));
#332=DIRECTION('',(0.,0.,-1.));
#333=DIRECTION('center_axis',(0.,0.,-1.));
#334=DIRECTION('ref_axis',(1.,0.,0.));
#335=DIRECTION('center_axis',(0.,0.,-1.));
#336=DIRECTION('ref_axis',(1.,0.,0.));
#337=DIRECTION('center_axis',(0.,-1.,0.));
#338=DIRECTION('ref_axis',(0.707106781186547,0.,0.707106781186547));
#339=DIRECTION('',(0.,-1.,0.));
#340=DIRECTION('',(0.,1.,0.));
#341=DIRECTION('center_axis',(-1.,0.,0.));
#342=DIRECTION('ref_axis',(0.,1.,0.));
#343=DIRECTION('center_axis',(0.,0.,-1.));
#344=DIRECTION('ref_axis',(1.,0.,0.));
#345=DIRECTION('center_axis',(0.,0.,-1.));
#346=DIRECTION('ref_axis',(1.,0.,0.));
#347=DIRECTION('center_axis',(0.,0.,-1.));
#348=DIRECTION('ref_axis',(1.,0.,0.));
#349=DIRECTION('center_axis',(0.,0.,1.));
#350=DIRECTION('ref_axis',(1.,0.,0.));
#351=DIRECTION('center_axis',(0.,0.,1.));
#352=DIRECTION('ref_axis',(1.,0.,0.));
#353=DIRECTION('',(0.,0.,-1.));
#354=CARTESIAN_POINT('',(0.,0.,0.));
#355=CARTESIAN_POINT('Origin',(0.,0.,58.));
#356=CARTESIAN_POINT('',(-10.,-1.22464679914735E-15,58.));
#357=CARTESIAN_POINT('Origin',(0.,0.,58.));
#358=CARTESIAN_POINT('',(3.,3.67394039744206E-16,58.));
#359=CARTESIAN_POINT('Origin',(0.,0.,58.));
#360=CARTESIAN_POINT('Origin',(0.,0.,57.));
#361=CARTESIAN_POINT('',(3.,3.67394039744206E-16,42.));
#362=CARTESIAN_POINT('',(3.,-3.67394039744206E-16,57.));
#363=CARTESIAN_POINT('Origin',(0.,0.,42.));
#364=CARTESIAN_POINT('Origin',(0.,0.,42.));
#365=CARTESIAN_POINT('Origin',(10.,6.49519052838329,-6.5));
#366=CARTESIAN_POINT('',(10.,-11.1803398874989,-4.));
#367=CARTESIAN_POINT('',(7.5,-12.9903810567666,-6.5));
#368=CARTESIAN_POINT('Ctrl Pts',(10.,-11.1803398874989,-4.));
#369=CARTESIAN_POINT('Ctrl Pts',(9.70159278121188,-11.4472434179737,-4.));
#370=CARTESIAN_POINT('Ctrl Pts',(9.36655344857468,-11.7231097589499,-4.0564913750026));
#371=CARTESIAN_POINT('Ctrl Pts',(8.72112374074713,-12.2108814229422,-4.3236578192071));
#372=CARTESIAN_POINT('Ctrl Pts',(8.41139462028048,-12.4232123015213,-4.53515221691784));
#373=CARTESIAN_POINT('Ctrl Pts',(7.97167009083446,-12.7084383583175,-5.01159836887143));
#374=CARTESIAN_POINT('Ctrl Pts',(7.79676359235456,-12.8152000725612,-5.27657646531886));
#375=CARTESIAN_POINT('Ctrl Pts',(7.56072518791135,-12.9558600213508,-5.86678959805101));
#376=CARTESIAN_POINT('Ctrl Pts',(7.5,-12.9903810567666,-6.19203862854739));
#377=CARTESIAN_POINT('Ctrl Pts',(7.5,-12.9903810567666,-6.5));
#378=CARTESIAN_POINT('',(7.5,12.9903810567666,-6.5));
#379=CARTESIAN_POINT('',(7.5,6.49519052838329,-6.5));
#380=CARTESIAN_POINT('',(10.,11.1803398874989,-4.));
#381=CARTESIAN_POINT('Ctrl Pts',(7.5,12.9903810567666,-6.5));
#382=CARTESIAN_POINT('Ctrl Pts',(7.5,12.9903810567666,-6.19203862854739));
#383=CARTESIAN_POINT('Ctrl Pts',(7.56072518791135,12.9558600213508,-5.86678959805101));
#384=CARTESIAN_POINT('Ctrl Pts',(7.79676359235456,12.8152000725612,-5.27657646531886));
#385=CARTESIAN_POINT('Ctrl Pts',(7.97167009083446,12.7084383583175,-5.01159836887143));
#386=CARTESIAN_POINT('Ctrl Pts',(8.41139462028048,12.4232123015213,-4.53515221691784));
#387=CARTESIAN_POINT('Ctrl Pts',(8.72112374074713,12.2108814229422,-4.3236578192071));
#388=CARTESIAN_POINT('Ctrl Pts',(9.36655344857468,11.7231097589499,-4.0564913750026));
#389=CARTESIAN_POINT('Ctrl Pts',(9.70159278121188,11.4472434179737,-4.));
#390=CARTESIAN_POINT('Ctrl Pts',(10.,11.1803398874989,-4.));
#391=CARTESIAN_POINT('',(10.,6.49519052838329,-4.));
#392=CARTESIAN_POINT('Origin',(7.5,12.9903810567666,-4.));
#393=CARTESIAN_POINT('',(7.5,-12.9903810567666,-11.5));
#394=CARTESIAN_POINT('',(7.5,-12.9903810567666,-4.));
#395=CARTESIAN_POINT('',(7.5,12.9903810567666,-11.5));
#396=CARTESIAN_POINT('',(7.5,6.49519052838329,-11.5));
#397=CARTESIAN_POINT('',(7.5,12.9903810567666,-4.));
#398=CARTESIAN_POINT('Origin',(5.,6.49519052838329,-11.5));
#399=CARTESIAN_POINT('',(5.,-14.142135623731,-14.));
#400=CARTESIAN_POINT('Ctrl Pts',(7.5,-12.9903810567666,-11.5));
#401=CARTESIAN_POINT('Ctrl Pts',(7.5,-12.9903810567666,-11.815039183662));
#402=CARTESIAN_POINT('Ctrl Pts',(7.43675516716976,-13.0274609738726,-12.1469072091402));
#403=CARTESIAN_POINT('Ctrl Pts',(7.18939473622093,-13.1655865579354,-12.7501265468486));
#404=CARTESIAN_POINT('Ctrl Pts',(7.00556056684877,-13.2655816608067,-13.0218332800638));
#405=CARTESIAN_POINT('Ctrl Pts',(6.57441794865208,-13.4848318259345,-13.4687936204638));
#406=CARTESIAN_POINT('Ctrl Pts',(6.29043216199242,-13.6215492679659,-13.6679776825284));
#407=CARTESIAN_POINT('Ctrl Pts',(5.66530666440463,-13.8931796806351,-13.9336617691152));
#408=CARTESIAN_POINT('Ctrl Pts',(5.32389376116921,-14.0276218862776,-14.));
#409=CARTESIAN_POINT('Ctrl Pts',(5.,-14.142135623731,-14.));
#410=CARTESIAN_POINT('',(5.,14.142135623731,-14.));
#411=CARTESIAN_POINT('',(5.,6.49519052838329,-14.));
#412=CARTESIAN_POINT('Ctrl Pts',(5.,14.142135623731,-14.));
#413=CARTESIAN_POINT('Ctrl Pts',(5.32389376116921,14.0276218862776,-14.));
#414=CARTESIAN_POINT('Ctrl Pts',(5.66530666440463,13.8931796806351,-13.9336617691152));
#415=CARTESIAN_POINT('Ctrl Pts',(6.29043216199242,13.6215492679659,-13.6679776825284));
#416=CARTESIAN_POINT('Ctrl Pts',(6.57441794865208,13.4848318259345,-13.4687936204638));
#417=CARTESIAN_POINT('Ctrl Pts',(7.00556056684877,13.2655816608067,-13.0218332800638));
#418=CARTESIAN_POINT('Ctrl Pts',(7.18939473622093,13.1655865579354,-12.7501265468486));
#419=CARTESIAN_POINT('Ctrl Pts',(7.43675516716976,13.0274609738726,-12.1469072091402));
#420=CARTESIAN_POINT('Ctrl Pts',(7.5,12.9903810567666,-11.815039183662));
#421=CARTESIAN_POINT('Ctrl Pts',(7.5,12.9903810567666,-11.5));
#422=CARTESIAN_POINT('Origin',(-5.,-6.49519052838329,-11.5));
#423=CARTESIAN_POINT('',(-7.5,12.9903810567666,-11.5));
#424=CARTESIAN_POINT('',(-5.,14.142135623731,-14.));
#425=CARTESIAN_POINT('Ctrl Pts',(-7.5,12.9903810567666,-11.5));
#426=CARTESIAN_POINT('Ctrl Pts',(-7.5,12.9903810567666,-11.815039183662));
#427=CARTESIAN_POINT('Ctrl Pts',(-7.43675516716976,13.0274609738726,-12.1469072091402));
#428=CARTESIAN_POINT('Ctrl Pts',(-7.18939473622093,13.1655865579354,-12.7501265468486));
#429=CARTESIAN_POINT('Ctrl Pts',(-7.00556056684877,13.2655816608067,-13.0218332800638));
#430=CARTESIAN_POINT('Ctrl Pts',(-6.57441794865208,13.4848318259345,-13.4687936204638));
#431=CARTESIAN_POINT('Ctrl Pts',(-6.29043216199242,13.6215492679659,-13.6679776825284));
#432=CARTESIAN_POINT('Ctrl Pts',(-5.66530666440463,13.8931796806351,-13.9336617691152));
#433=CARTESIAN_POINT('Ctrl Pts',(-5.32389376116921,14.0276218862776,-14.));
#434=CARTESIAN_POINT('Ctrl Pts',(-5.,14.142135623731,-14.));
#435=CARTESIAN_POINT('',(-5.,-14.142135623731,-14.));
#436=CARTESIAN_POINT('',(-5.,-6.49519052838329,-14.));
#437=CARTESIAN_POINT('',(-7.5,-12.9903810567666,-11.5));
#438=CARTESIAN_POINT('Ctrl Pts',(-5.,-14.142135623731,-14.));
#439=CARTESIAN_POINT('Ctrl Pts',(-5.32389376116921,-14.0276218862776,-14.));
#440=CARTESIAN_POINT('Ctrl Pts',(-5.66530666440463,-13.8931796806351,-13.9336617691152));
#441=CARTESIAN_POINT('Ctrl Pts',(-6.29043216199242,-13.6215492679659,-13.6679776825284));
#442=CARTESIAN_POINT('Ctrl Pts',(-6.57441794865208,-13.4848318259345,-13.4687936204638));
#443=CARTESIAN_POINT('Ctrl Pts',(-7.00556056684877,-13.2655816608067,-13.0218332800638));
#444=CARTESIAN_POINT('Ctrl Pts',(-7.18939473622093,-13.1655865579354,-12.7501265468486));
#445=CARTESIAN_POINT('Ctrl Pts',(-7.43675516716976,-13.0274609738726,-12.1469072091402));
#446=CARTESIAN_POINT('Ctrl Pts',(-7.5,-12.9903810567666,-11.815039183662));
#447=CARTESIAN_POINT('Ctrl Pts',(-7.5,-12.9903810567666,-11.5));
#448=CARTESIAN_POINT('',(-7.5,-6.49519052838329,-11.5));
#449=CARTESIAN_POINT('Origin',(0.,0.,0.));
#450=CARTESIAN_POINT('Origin',(0.,0.,-4.));
#451=CARTESIAN_POINT('Origin',(0.,0.,-14.));
#452=CARTESIAN_POINT('',(-7.5,12.9903810567666,-6.5));
#453=CARTESIAN_POINT('',(-7.5,12.9903810567666,-4.));
#454=CARTESIAN_POINT('',(-10.,11.1803398874989,-4.));
#455=CARTESIAN_POINT('Ctrl Pts',(-10.,11.1803398874989,-4.));
#456=CARTESIAN_POINT('Ctrl Pts',(-9.70159278121188,11.4472434179737,-4.));
#457=CARTESIAN_POINT('Ctrl Pts',(-9.36655344857468,11.7231097589499,-4.0564913750026));
#458=CARTESIAN_POINT('Ctrl Pts',(-8.72112374074713,12.2108814229422,-4.3236578192071));
#459=CARTESIAN_POINT('Ctrl Pts',(-8.41139462028048,12.4232123015213,-4.53515221691784));
#460=CARTESIAN_POINT('Ctrl Pts',(-7.97167009083446,12.7084383583175,-5.01159836887143));
#461=CARTESIAN_POINT('Ctrl Pts',(-7.79676359235456,12.8152000725612,-5.27657646531886));
#462=CARTESIAN_POINT('Ctrl Pts',(-7.56072518791135,12.9558600213508,-5.86678959805101));
#463=CARTESIAN_POINT('Ctrl Pts',(-7.5,12.9903810567666,-6.19203862854739));
#464=CARTESIAN_POINT('Ctrl Pts',(-7.5,12.9903810567666,-6.5));
#465=CARTESIAN_POINT('',(-15.,1.83697019872103E-15,-4.));
#466=CARTESIAN_POINT('Origin',(0.,0.,-4.));
#467=CARTESIAN_POINT('',(-15.,1.83697019872103E-15,0.));
#468=CARTESIAN_POINT('',(-15.,1.83697019872103E-15,0.));
#469=CARTESIAN_POINT('Origin',(0.,0.,0.));
#470=CARTESIAN_POINT('',(-10.,-11.1803398874989,-4.));
#471=CARTESIAN_POINT('Origin',(0.,0.,-4.));
#472=CARTESIAN_POINT('',(-7.5,-12.9903810567666,-6.5));
#473=CARTESIAN_POINT('Ctrl Pts',(-7.5,-12.9903810567666,-6.5));
#474=CARTESIAN_POINT('Ctrl Pts',(-7.5,-12.9903810567666,-6.19203862854739));
#475=CARTESIAN_POINT('Ctrl Pts',(-7.56072518791135,-12.9558600213508,-5.86678959805101));
#476=CARTESIAN_POINT('Ctrl Pts',(-7.79676359235456,-12.8152000725612,-5.27657646531886));
#477=CARTESIAN_POINT('Ctrl Pts',(-7.97167009083446,-12.7084383583175,-5.01159836887143));
#478=CARTESIAN_POINT('Ctrl Pts',(-8.41139462028048,-12.4232123015213,-4.53515221691784));
#479=CARTESIAN_POINT('Ctrl Pts',(-8.72112374074713,-12.2108814229422,-4.3236578192071));
#480=CARTESIAN_POINT('Ctrl Pts',(-9.36655344857468,-11.7231097589499,-4.0564913750026));
#481=CARTESIAN_POINT('Ctrl Pts',(-9.70159278121188,-11.4472434179737,-4.));
#482=CARTESIAN_POINT('Ctrl Pts',(-10.,-11.1803398874989,-4.));
#483=CARTESIAN_POINT('',(-7.5,-12.9903810567666,-4.));
#484=CARTESIAN_POINT('Origin',(0.,0.,-14.));
#485=CARTESIAN_POINT('Origin',(-1.11022302462516E-15,0.,-14.));
#486=CARTESIAN_POINT('Origin',(-10.,-6.49519052838329,-6.5));
#487=CARTESIAN_POINT('',(-7.5,-6.49519052838329,-6.5));
#488=CARTESIAN_POINT('',(-10.,-6.49519052838329,-4.));
#489=CARTESIAN_POINT('Origin',(-7.5,-12.9903810567666,-4.));
#490=CARTESIAN_POINT('Origin',(0.,0.,-4.));
#491=CARTESIAN_POINT('Origin',(0.,0.,-4.));
#492=CARTESIAN_POINT('Origin',(0.,0.,0.));
#493=CARTESIAN_POINT('',(-10.,-1.22464679914735E-15,0.));
#494=CARTESIAN_POINT('Origin',(0.,0.,0.));
#495=CARTESIAN_POINT('Origin',(0.,0.,0.));
#496=CARTESIAN_POINT('',(-10.,-1.22464679914735E-15,0.));
#497=UNCERTAINTY_MEASURE_WITH_UNIT(LENGTH_MEASURE(0.01),#501,
'DISTANCE_ACCURACY_VALUE',
'Maximum model space distance between geometric entities at asserted c
onnectivities');
#498=UNCERTAINTY_MEASURE_WITH_UNIT(LENGTH_MEASURE(0.01),#501,
'DISTANCE_ACCURACY_VALUE',
'Maximum model space distance between geometric entities at asserted c
onnectivities');
#499=(
GEOMETRIC_REPRESENTATION_CONTEXT(3)
GLOBAL_UNCERTAINTY_ASSIGNED_CONTEXT((#497))
GLOBAL_UNIT_ASSIGNED_CONTEXT((#501,#503,#504))
REPRESENTATION_CONTEXT('','3D')
);
#500=(
GEOMETRIC_REPRESENTATION_CONTEXT(3)
GLOBAL_UNCERTAINTY_ASSIGNED_CONTEXT((#498))
GLOBAL_UNIT_ASSIGNED_CONTEXT((#501,#503,#504))
REPRESENTATION_CONTEXT('','3D')
);
#501=(
LENGTH_UNIT()
NAMED_UNIT(*)
SI_UNIT(.MILLI.,.METRE.)
);
#502=(
LENGTH_UNIT()
NAMED_UNIT(*)
SI_UNIT($,.METRE.)
);
#503=(
NAMED_UNIT(*)
PLANE_ANGLE_UNIT()
SI_UNIT($,.RADIAN.)
);
#504=(
NAMED_UNIT(*)
SI_UNIT($,.STERADIAN.)
SOLID_ANGLE_UNIT()
);
#505=SHAPE_DEFINITION_REPRESENTATION(#506,#507);
#506=PRODUCT_DEFINITION_SHAPE('',$,#509);
#507=SHAPE_REPRESENTATION('',(#261),#499);
#508=PRODUCT_DEFINITION_CONTEXT('part definition',#513,'design');
#509=PRODUCT_DEFINITION('EQ_WEDGE_CYL','EQ_WEDGE_CYL v1',#510,#508);
#510=PRODUCT_DEFINITION_FORMATION('',$,#515);
#511=PRODUCT_RELATED_PRODUCT_CATEGORY('EQ_WEDGE_CYL v1',
'EQ_WEDGE_CYL v1',(#515));
#512=APPLICATION_PROTOCOL_DEFINITION('international standard',
'automotive_design',2009,#513);
#513=APPLICATION_CONTEXT(
'Core Data for Automotive Mechanical Design Process');
#514=PRODUCT_CONTEXT('part definition',#513,'mechanical');
#515=PRODUCT('EQ_WEDGE_CYL','EQ_WEDGE_CYL v1',$,(#514));
#516=PRESENTATION_STYLE_ASSIGNMENT((#517));
#517=SURFACE_STYLE_USAGE(.BOTH.,#518);
#518=SURFACE_SIDE_STYLE('',(#519));
#519=SURFACE_STYLE_FILL_AREA(#520);
#520=FILL_AREA_STYLE('Acier - Satin\X\E9',(#521));
#521=FILL_AREA_STYLE_COLOUR('Acier - Satin\X\E9',#522);
#522=COLOUR_RGB('Acier - Satin\X\E9',0.627450980392157,0.627450980392157,
0.627450980392157);
ENDSEC;
END-ISO-10303-21;
