ISO-10303-21;
HEADER;
/* Generated by software containing ST-Developer
 * from STEP Tools, Inc. (www.steptools.com) 
 */

FILE_DESCRIPTION(
/* description */ (''),
/* implementation_level */ '2;1');

FILE_NAME(
/* name */ 'Piston.step',
/* time_stamp */ '2023-04-03T18:53:03+02:00',
/* author */ (''),
/* organization */ (''),
/* preprocessor_version */ 'ST-DEVELOPER v19.2',
/* originating_system */ 'Autodesk Translation Framework v11.17.0.187',

/* authorisation */ '');

FILE_SCHEMA (('AUTOMOTIVE_DESIGN { 1 0 10303 214 3 1 1 }'));
ENDSEC;

DATA;
#10=MECHANICAL_DESIGN_GEOMETRIC_PRESENTATION_REPRESENTATION('',(#13),#483);
#11=SHAPE_REPRESENTATION_RELATIONSHIP('SRR','None',#490,#12);
#12=ADVANCED_BREP_SHAPE_REPRESENTATION('',(#14),#482);
#13=STYLED_ITEM('',(#499),#14);
#14=MANIFOLD_SOLID_BREP('Corps4',#273);
#15=FACE_BOUND('',#54,.T.);
#16=FACE_BOUND('',#59,.T.);
#17=FACE_BOUND('',#61,.T.);
#18=FACE_BOUND('',#64,.T.);
#19=PLANE('',#293);
#20=PLANE('',#295);
#21=PLANE('',#297);
#22=PLANE('',#302);
#23=PLANE('',#304);
#24=PLANE('',#307);
#25=PLANE('',#315);
#26=PLANE('',#316);
#27=PLANE('',#317);
#28=PLANE('',#318);
#29=CYLINDRICAL_SURFACE('',#291,6.75);
#30=CYLINDRICAL_SURFACE('',#299,5.);
#31=CYLINDRICAL_SURFACE('',#306,1.5);
#32=CYLINDRICAL_SURFACE('',#309,8.75);
#33=CYLINDRICAL_SURFACE('',#314,11.);
#34=FACE_OUTER_BOUND('',#51,.T.);
#35=FACE_OUTER_BOUND('',#52,.T.);
#36=FACE_OUTER_BOUND('',#53,.T.);
#37=FACE_OUTER_BOUND('',#55,.T.);
#38=FACE_OUTER_BOUND('',#56,.T.);
#39=FACE_OUTER_BOUND('',#57,.T.);
#40=FACE_OUTER_BOUND('',#58,.T.);
#41=FACE_OUTER_BOUND('',#60,.T.);
#42=FACE_OUTER_BOUND('',#62,.T.);
#43=FACE_OUTER_BOUND('',#63,.T.);
#44=FACE_OUTER_BOUND('',#65,.T.);
#45=FACE_OUTER_BOUND('',#66,.T.);
#46=FACE_OUTER_BOUND('',#67,.T.);
#47=FACE_OUTER_BOUND('',#68,.T.);
#48=FACE_OUTER_BOUND('',#69,.T.);
#49=FACE_OUTER_BOUND('',#70,.T.);
#50=FACE_OUTER_BOUND('',#71,.T.);
#51=EDGE_LOOP('',(#184,#185,#186,#187,#188));
#52=EDGE_LOOP('',(#189,#190,#191,#192,#193));
#53=EDGE_LOOP('',(#194,#195,#196,#197));
#54=EDGE_LOOP('',(#198));
#55=EDGE_LOOP('',(#199,#200,#201));
#56=EDGE_LOOP('',(#202,#203,#204));
#57=EDGE_LOOP('',(#205,#206,#207,#208));
#58=EDGE_LOOP('',(#209));
#59=EDGE_LOOP('',(#210));
#60=EDGE_LOOP('',(#211));
#61=EDGE_LOOP('',(#212));
#62=EDGE_LOOP('',(#213,#214,#215,#216));
#63=EDGE_LOOP('',(#217));
#64=EDGE_LOOP('',(#218));
#65=EDGE_LOOP('',(#219,#220,#221,#222));
#66=EDGE_LOOP('',(#223,#224,#225,#226,#227,#228,#229));
#67=EDGE_LOOP('',(#230,#231,#232,#233,#234));
#68=EDGE_LOOP('',(#235,#236,#237,#238,#239));
#69=EDGE_LOOP('',(#240,#241,#242,#243));
#70=EDGE_LOOP('',(#244,#245,#246,#247,#248));
#71=EDGE_LOOP('',(#249,#250,#251,#252,#253));
#72=LINE('',#412,#92);
#73=LINE('',#416,#93);
#74=LINE('',#421,#94);
#75=LINE('',#423,#95);
#76=LINE('',#426,#96);
#77=LINE('',#432,#97);
#78=LINE('',#433,#98);
#79=LINE('',#438,#99);
#80=LINE('',#439,#100);
#81=LINE('',#444,#101);
#82=LINE('',#453,#102);
#83=LINE('',#460,#103);
#84=LINE('',#464,#104);
#85=LINE('',#467,#105);
#86=LINE('',#468,#106);
#87=LINE('',#471,#107);
#88=LINE('',#472,#108);
#89=LINE('',#475,#109);
#90=LINE('',#476,#110);
#91=LINE('',#478,#111);
#92=VECTOR('',#327,7.74999999999986);
#93=VECTOR('',#332,6.75);
#94=VECTOR('',#337,10.);
#95=VECTOR('',#338,10.);
#96=VECTOR('',#341,10.);
#97=VECTOR('',#346,10.);
#98=VECTOR('',#347,10.);
#99=VECTOR('',#352,10.);
#100=VECTOR('',#353,10.);
#101=VECTOR('',#358,5.);
#102=VECTOR('',#371,1.5);
#103=VECTOR('',#380,8.75);
#104=VECTOR('',#385,9.875);
#105=VECTOR('',#390,10.);
#106=VECTOR('',#391,10.);
#107=VECTOR('',#394,10.);
#108=VECTOR('',#395,10.);
#109=VECTOR('',#398,10.);
#110=VECTOR('',#399,10.);
#111=VECTOR('',#402,10.);
#112=CIRCLE('',#288,6.75);
#113=CIRCLE('',#289,6.75);
#114=CIRCLE('',#290,8.74999999999971);
#115=CIRCLE('',#292,6.75);
#116=CIRCLE('',#294,11.);
#117=CIRCLE('',#296,11.);
#118=CIRCLE('',#298,11.);
#119=CIRCLE('',#300,5.);
#120=CIRCLE('',#301,5.);
#121=CIRCLE('',#303,1.5);
#122=CIRCLE('',#305,1.5);
#123=CIRCLE('',#308,8.75);
#124=CIRCLE('',#310,8.75);
#125=CIRCLE('',#312,11.);
#126=CIRCLE('',#313,11.);
#127=VERTEX_POINT('',#407);
#128=VERTEX_POINT('',#408);
#129=VERTEX_POINT('',#411);
#130=VERTEX_POINT('',#415);
#131=VERTEX_POINT('',#419);
#132=VERTEX_POINT('',#420);
#133=VERTEX_POINT('',#422);
#134=VERTEX_POINT('',#424);
#135=VERTEX_POINT('',#428);
#136=VERTEX_POINT('',#429);
#137=VERTEX_POINT('',#431);
#138=VERTEX_POINT('',#435);
#139=VERTEX_POINT('',#437);
#140=VERTEX_POINT('',#441);
#141=VERTEX_POINT('',#443);
#142=VERTEX_POINT('',#447);
#143=VERTEX_POINT('',#450);
#144=VERTEX_POINT('',#455);
#145=VERTEX_POINT('',#458);
#146=VERTEX_POINT('',#462);
#147=VERTEX_POINT('',#470);
#148=VERTEX_POINT('',#474);
#149=EDGE_CURVE('',#127,#128,#112,.T.);
#150=EDGE_CURVE('',#128,#127,#113,.T.);
#151=EDGE_CURVE('',#127,#129,#72,.T.);
#152=EDGE_CURVE('',#129,#129,#114,.T.);
#153=EDGE_CURVE('',#128,#130,#73,.T.);
#154=EDGE_CURVE('',#130,#130,#115,.T.);
#155=EDGE_CURVE('',#131,#132,#74,.T.);
#156=EDGE_CURVE('',#132,#133,#75,.T.);
#157=EDGE_CURVE('',#133,#134,#116,.T.);
#158=EDGE_CURVE('',#131,#134,#76,.T.);
#159=EDGE_CURVE('',#135,#136,#117,.T.);
#160=EDGE_CURVE('',#137,#136,#77,.T.);
#161=EDGE_CURVE('',#135,#137,#78,.T.);
#162=EDGE_CURVE('',#138,#135,#118,.T.);
#163=EDGE_CURVE('',#139,#135,#79,.T.);
#164=EDGE_CURVE('',#139,#138,#80,.T.);
#165=EDGE_CURVE('',#140,#140,#119,.T.);
#166=EDGE_CURVE('',#140,#141,#81,.T.);
#167=EDGE_CURVE('',#141,#141,#120,.T.);
#168=EDGE_CURVE('',#142,#142,#121,.T.);
#169=EDGE_CURVE('',#143,#143,#122,.T.);
#170=EDGE_CURVE('',#143,#142,#82,.T.);
#171=EDGE_CURVE('',#144,#144,#123,.T.);
#172=EDGE_CURVE('',#145,#145,#124,.T.);
#173=EDGE_CURVE('',#145,#144,#83,.T.);
#174=EDGE_CURVE('',#146,#138,#125,.T.);
#175=EDGE_CURVE('',#146,#145,#84,.T.);
#176=EDGE_CURVE('',#136,#146,#126,.T.);
#177=EDGE_CURVE('',#138,#134,#85,.T.);
#178=EDGE_CURVE('',#133,#136,#86,.T.);
#179=EDGE_CURVE('',#139,#147,#87,.T.);
#180=EDGE_CURVE('',#147,#131,#88,.T.);
#181=EDGE_CURVE('',#148,#147,#89,.T.);
#182=EDGE_CURVE('',#132,#148,#90,.T.);
#183=EDGE_CURVE('',#148,#137,#91,.T.);
#184=ORIENTED_EDGE('',*,*,#149,.T.);
#185=ORIENTED_EDGE('',*,*,#150,.T.);
#186=ORIENTED_EDGE('',*,*,#151,.T.);
#187=ORIENTED_EDGE('',*,*,#152,.T.);
#188=ORIENTED_EDGE('',*,*,#151,.F.);
#189=ORIENTED_EDGE('',*,*,#149,.F.);
#190=ORIENTED_EDGE('',*,*,#150,.F.);
#191=ORIENTED_EDGE('',*,*,#153,.T.);
#192=ORIENTED_EDGE('',*,*,#154,.F.);
#193=ORIENTED_EDGE('',*,*,#153,.F.);
#194=ORIENTED_EDGE('',*,*,#155,.T.);
#195=ORIENTED_EDGE('',*,*,#156,.T.);
#196=ORIENTED_EDGE('',*,*,#157,.T.);
#197=ORIENTED_EDGE('',*,*,#158,.F.);
#198=ORIENTED_EDGE('',*,*,#152,.F.);
#199=ORIENTED_EDGE('',*,*,#159,.T.);
#200=ORIENTED_EDGE('',*,*,#160,.F.);
#201=ORIENTED_EDGE('',*,*,#161,.F.);
#202=ORIENTED_EDGE('',*,*,#162,.T.);
#203=ORIENTED_EDGE('',*,*,#163,.F.);
#204=ORIENTED_EDGE('',*,*,#164,.T.);
#205=ORIENTED_EDGE('',*,*,#165,.F.);
#206=ORIENTED_EDGE('',*,*,#166,.T.);
#207=ORIENTED_EDGE('',*,*,#167,.F.);
#208=ORIENTED_EDGE('',*,*,#166,.F.);
#209=ORIENTED_EDGE('',*,*,#165,.T.);
#210=ORIENTED_EDGE('',*,*,#168,.T.);
#211=ORIENTED_EDGE('',*,*,#154,.T.);
#212=ORIENTED_EDGE('',*,*,#169,.F.);
#213=ORIENTED_EDGE('',*,*,#169,.T.);
#214=ORIENTED_EDGE('',*,*,#170,.T.);
#215=ORIENTED_EDGE('',*,*,#168,.F.);
#216=ORIENTED_EDGE('',*,*,#170,.F.);
#217=ORIENTED_EDGE('',*,*,#171,.F.);
#218=ORIENTED_EDGE('',*,*,#167,.T.);
#219=ORIENTED_EDGE('',*,*,#172,.F.);
#220=ORIENTED_EDGE('',*,*,#173,.T.);
#221=ORIENTED_EDGE('',*,*,#171,.T.);
#222=ORIENTED_EDGE('',*,*,#173,.F.);
#223=ORIENTED_EDGE('',*,*,#159,.F.);
#224=ORIENTED_EDGE('',*,*,#162,.F.);
#225=ORIENTED_EDGE('',*,*,#174,.F.);
#226=ORIENTED_EDGE('',*,*,#175,.T.);
#227=ORIENTED_EDGE('',*,*,#172,.T.);
#228=ORIENTED_EDGE('',*,*,#175,.F.);
#229=ORIENTED_EDGE('',*,*,#176,.F.);
#230=ORIENTED_EDGE('',*,*,#177,.T.);
#231=ORIENTED_EDGE('',*,*,#157,.F.);
#232=ORIENTED_EDGE('',*,*,#178,.T.);
#233=ORIENTED_EDGE('',*,*,#176,.T.);
#234=ORIENTED_EDGE('',*,*,#174,.T.);
#235=ORIENTED_EDGE('',*,*,#179,.T.);
#236=ORIENTED_EDGE('',*,*,#180,.T.);
#237=ORIENTED_EDGE('',*,*,#158,.T.);
#238=ORIENTED_EDGE('',*,*,#177,.F.);
#239=ORIENTED_EDGE('',*,*,#164,.F.);
#240=ORIENTED_EDGE('',*,*,#181,.F.);
#241=ORIENTED_EDGE('',*,*,#182,.F.);
#242=ORIENTED_EDGE('',*,*,#155,.F.);
#243=ORIENTED_EDGE('',*,*,#180,.F.);
#244=ORIENTED_EDGE('',*,*,#163,.T.);
#245=ORIENTED_EDGE('',*,*,#161,.T.);
#246=ORIENTED_EDGE('',*,*,#183,.F.);
#247=ORIENTED_EDGE('',*,*,#181,.T.);
#248=ORIENTED_EDGE('',*,*,#179,.F.);
#249=ORIENTED_EDGE('',*,*,#183,.T.);
#250=ORIENTED_EDGE('',*,*,#160,.T.);
#251=ORIENTED_EDGE('',*,*,#178,.F.);
#252=ORIENTED_EDGE('',*,*,#156,.F.);
#253=ORIENTED_EDGE('',*,*,#182,.T.);
#254=CONICAL_SURFACE('',#287,7.74999999999986,0.785397895176547);
#255=CONICAL_SURFACE('',#311,9.875,1.15257199721567);
#256=ADVANCED_FACE('',(#34),#254,.F.);
#257=ADVANCED_FACE('',(#35),#29,.F.);
#258=ADVANCED_FACE('',(#36,#15),#19,.T.);
#259=ADVANCED_FACE('',(#37),#20,.T.);
#260=ADVANCED_FACE('',(#38),#21,.T.);
#261=ADVANCED_FACE('',(#39),#30,.T.);
#262=ADVANCED_FACE('',(#40,#16),#22,.T.);
#263=ADVANCED_FACE('',(#41,#17),#23,.T.);
#264=ADVANCED_FACE('',(#42),#31,.F.);
#265=ADVANCED_FACE('',(#43,#18),#24,.T.);
#266=ADVANCED_FACE('',(#44),#32,.T.);
#267=ADVANCED_FACE('',(#45),#255,.T.);
#268=ADVANCED_FACE('',(#46),#33,.T.);
#269=ADVANCED_FACE('',(#47),#25,.T.);
#270=ADVANCED_FACE('',(#48),#26,.T.);
#271=ADVANCED_FACE('',(#49),#27,.T.);
#272=ADVANCED_FACE('',(#50),#28,.T.);
#273=CLOSED_SHELL('',(#256,#257,#258,#259,#260,#261,#262,#263,#264,#265,
#266,#267,#268,#269,#270,#271,#272));
#274=DERIVED_UNIT_ELEMENT(#276,1.);
#275=DERIVED_UNIT_ELEMENT(#485,-3.);
#276=(
MASS_UNIT()
NAMED_UNIT(*)
SI_UNIT(.KILO.,.GRAM.)
);
#277=DERIVED_UNIT((#274,#275));
#278=MEASURE_REPRESENTATION_ITEM('density measure',
POSITIVE_RATIO_MEASURE(7850.),#277);
#279=PROPERTY_DEFINITION_REPRESENTATION(#284,#281);
#280=PROPERTY_DEFINITION_REPRESENTATION(#285,#282);
#281=REPRESENTATION('material name',(#283),#482);
#282=REPRESENTATION('density',(#278),#482);
#283=DESCRIPTIVE_REPRESENTATION_ITEM('Acier','Acier');
#284=PROPERTY_DEFINITION('material property','material name',#492);
#285=PROPERTY_DEFINITION('material property','density of part',#492);
#286=AXIS2_PLACEMENT_3D('placement',#405,#319,#320);
#287=AXIS2_PLACEMENT_3D('',#406,#321,#322);
#288=AXIS2_PLACEMENT_3D('',#409,#323,#324);
#289=AXIS2_PLACEMENT_3D('',#410,#325,#326);
#290=AXIS2_PLACEMENT_3D('',#413,#328,#329);
#291=AXIS2_PLACEMENT_3D('',#414,#330,#331);
#292=AXIS2_PLACEMENT_3D('',#417,#333,#334);
#293=AXIS2_PLACEMENT_3D('',#418,#335,#336);
#294=AXIS2_PLACEMENT_3D('',#425,#339,#340);
#295=AXIS2_PLACEMENT_3D('',#427,#342,#343);
#296=AXIS2_PLACEMENT_3D('',#430,#344,#345);
#297=AXIS2_PLACEMENT_3D('',#434,#348,#349);
#298=AXIS2_PLACEMENT_3D('',#436,#350,#351);
#299=AXIS2_PLACEMENT_3D('',#440,#354,#355);
#300=AXIS2_PLACEMENT_3D('',#442,#356,#357);
#301=AXIS2_PLACEMENT_3D('',#445,#359,#360);
#302=AXIS2_PLACEMENT_3D('',#446,#361,#362);
#303=AXIS2_PLACEMENT_3D('',#448,#363,#364);
#304=AXIS2_PLACEMENT_3D('',#449,#365,#366);
#305=AXIS2_PLACEMENT_3D('',#451,#367,#368);
#306=AXIS2_PLACEMENT_3D('',#452,#369,#370);
#307=AXIS2_PLACEMENT_3D('',#454,#372,#373);
#308=AXIS2_PLACEMENT_3D('',#456,#374,#375);
#309=AXIS2_PLACEMENT_3D('',#457,#376,#377);
#310=AXIS2_PLACEMENT_3D('',#459,#378,#379);
#311=AXIS2_PLACEMENT_3D('',#461,#381,#382);
#312=AXIS2_PLACEMENT_3D('',#463,#383,#384);
#313=AXIS2_PLACEMENT_3D('',#465,#386,#387);
#314=AXIS2_PLACEMENT_3D('',#466,#388,#389);
#315=AXIS2_PLACEMENT_3D('',#469,#392,#393);
#316=AXIS2_PLACEMENT_3D('',#473,#396,#397);
#317=AXIS2_PLACEMENT_3D('',#477,#400,#401);
#318=AXIS2_PLACEMENT_3D('',#479,#403,#404);
#319=DIRECTION('axis',(0.,0.,1.));
#320=DIRECTION('refdir',(1.,0.,0.));
#321=DIRECTION('center_axis',(1.,0.,0.));
#322=DIRECTION('ref_axis',(0.,-1.,0.));
#323=DIRECTION('center_axis',(-1.,0.,0.));
#324=DIRECTION('ref_axis',(0.,-1.,0.));
#325=DIRECTION('center_axis',(-1.,0.,0.));
#326=DIRECTION('ref_axis',(0.,-1.,0.));
#327=DIRECTION('',(0.70710697084734,0.707106591525704,-8.65955823967948E-17));
#328=DIRECTION('center_axis',(1.,0.,0.));
#329=DIRECTION('ref_axis',(0.,-1.,0.));
#330=DIRECTION('center_axis',(1.,0.,0.));
#331=DIRECTION('ref_axis',(0.,1.,0.));
#332=DIRECTION('',(-1.,0.,0.));
#333=DIRECTION('center_axis',(1.,0.,0.));
#334=DIRECTION('ref_axis',(0.,0.,-1.));
#335=DIRECTION('center_axis',(1.,0.,0.));
#336=DIRECTION('ref_axis',(0.,0.,-1.));
#337=DIRECTION('',(0.,1.,0.));
#338=DIRECTION('',(0.,0.,1.));
#339=DIRECTION('center_axis',(1.,0.,0.));
#340=DIRECTION('ref_axis',(0.,0.,-1.));
#341=DIRECTION('',(0.,0.,1.));
#342=DIRECTION('center_axis',(-1.,0.,0.));
#343=DIRECTION('ref_axis',(0.,-1.,0.));
#344=DIRECTION('center_axis',(1.,0.,0.));
#345=DIRECTION('ref_axis',(0.,0.,-1.));
#346=DIRECTION('',(0.,0.,1.));
#347=DIRECTION('',(0.,1.,0.));
#348=DIRECTION('center_axis',(-1.,0.,0.));
#349=DIRECTION('ref_axis',(0.,-1.,0.));
#350=DIRECTION('center_axis',(1.,0.,0.));
#351=DIRECTION('ref_axis',(0.,0.,-1.));
#352=DIRECTION('',(0.,1.,0.));
#353=DIRECTION('',(0.,0.,1.));
#354=DIRECTION('center_axis',(-1.,0.,0.));
#355=DIRECTION('ref_axis',(0.,-1.,0.));
#356=DIRECTION('center_axis',(-1.,0.,0.));
#357=DIRECTION('ref_axis',(0.,-1.,0.));
#358=DIRECTION('',(1.,0.,0.));
#359=DIRECTION('center_axis',(1.,0.,0.));
#360=DIRECTION('ref_axis',(0.,-1.,0.));
#361=DIRECTION('center_axis',(-1.,0.,0.));
#362=DIRECTION('ref_axis',(0.,-1.,0.));
#363=DIRECTION('center_axis',(1.,0.,0.));
#364=DIRECTION('ref_axis',(0.,-1.,0.));
#365=DIRECTION('center_axis',(1.,0.,0.));
#366=DIRECTION('ref_axis',(0.,0.,-1.));
#367=DIRECTION('center_axis',(1.,0.,0.));
#368=DIRECTION('ref_axis',(0.,0.,-1.));
#369=DIRECTION('center_axis',(1.,0.,0.));
#370=DIRECTION('ref_axis',(0.,1.,0.));
#371=DIRECTION('',(-1.,0.,0.));
#372=DIRECTION('center_axis',(-1.,0.,0.));
#373=DIRECTION('ref_axis',(0.,0.,1.));
#374=DIRECTION('center_axis',(1.,0.,0.));
#375=DIRECTION('ref_axis',(0.,0.,-1.));
#376=DIRECTION('center_axis',(1.,0.,0.));
#377=DIRECTION('ref_axis',(0.,1.,0.));
#378=DIRECTION('center_axis',(1.,0.,0.));
#379=DIRECTION('ref_axis',(0.,0.,-1.));
#380=DIRECTION('',(-1.,0.,0.));
#381=DIRECTION('center_axis',(1.,0.,0.));
#382=DIRECTION('ref_axis',(0.,1.,0.));
#383=DIRECTION('center_axis',(1.,0.,0.));
#384=DIRECTION('ref_axis',(0.,0.,-1.));
#385=DIRECTION('',(-0.406138466053446,0.913811548620258,1.11909638804168E-16));
#386=DIRECTION('center_axis',(1.,0.,0.));
#387=DIRECTION('ref_axis',(0.,0.,-1.));
#388=DIRECTION('center_axis',(1.,0.,0.));
#389=DIRECTION('ref_axis',(0.,2.78210591735432E-9,1.));
#390=DIRECTION('',(1.,0.,0.));
#391=DIRECTION('',(-1.,0.,0.));
#392=DIRECTION('center_axis',(0.,-1.,0.));
#393=DIRECTION('ref_axis',(0.,0.,-1.));
#394=DIRECTION('',(0.624695047554425,0.,-0.78086880944303));
#395=DIRECTION('',(1.,0.,0.));
#396=DIRECTION('center_axis',(0.,0.,-1.));
#397=DIRECTION('ref_axis',(-1.,0.,0.));
#398=DIRECTION('',(0.,-1.,0.));
#399=DIRECTION('',(-1.,0.,0.));
#400=DIRECTION('center_axis',(-0.78086880944303,0.,-0.624695047554425));
#401=DIRECTION('ref_axis',(-0.624695047554425,0.,0.78086880944303));
#402=DIRECTION('',(-0.624695047554425,0.,0.78086880944303));
#403=DIRECTION('center_axis',(0.,1.,0.));
#404=DIRECTION('ref_axis',(0.,0.,1.));
#405=CARTESIAN_POINT('',(0.,0.,0.));
#406=CARTESIAN_POINT('Origin',(53.0000002682209,2.98023221378951E-8,0.));
#407=CARTESIAN_POINT('',(51.9999997317791,6.75000002980232,-8.26636589424463E-16));
#408=CARTESIAN_POINT('',(51.9999997317791,-6.74999997019768,-8.26636589424463E-16));
#409=CARTESIAN_POINT('Origin',(51.9999997317791,2.98023221378951E-8,0.));
#410=CARTESIAN_POINT('Origin',(51.9999997317791,2.98023221378951E-8,0.));
#411=CARTESIAN_POINT('',(54.0000008046627,8.75000002980203,1.0715659492539E-15));
#412=CARTESIAN_POINT('',(53.0000002682209,7.75000002980218,-9.49101269339181E-16));
#413=CARTESIAN_POINT('Origin',(54.0000008046627,2.98023221378951E-8,0.));
#414=CARTESIAN_POINT('Origin',(20.4999997317791,2.98023221378951E-8,0.));
#415=CARTESIAN_POINT('',(-13.0000002682209,-6.74999997019768,-8.26636589424463E-16));
#416=CARTESIAN_POINT('',(20.4999997317791,-6.74999997019768,-8.26636589424463E-16));
#417=CARTESIAN_POINT('Origin',(-13.0000002682209,2.98023221378951E-8,0.));
#418=CARTESIAN_POINT('Origin',(54.0000008046627,0.,-11.0000001639128));
#419=CARTESIAN_POINT('',(54.0000008046627,-2.5,-13.5000001639128));
#420=CARTESIAN_POINT('',(54.0000008046627,2.5,-13.5000001639128));
#421=CARTESIAN_POINT('',(54.0000008046627,0.,-13.5000001639128));
#422=CARTESIAN_POINT('',(54.0000008046627,2.5,-10.7121426497695));
#423=CARTESIAN_POINT('',(54.0000008046627,2.5,-11.0000001639128));
#424=CARTESIAN_POINT('',(54.0000008046627,-2.5,-10.712142635859));
#425=CARTESIAN_POINT('Origin',(53.9999997317791,2.98023221378951E-8,0.));
#426=CARTESIAN_POINT('',(54.0000008046627,-2.5,-11.0000001639128));
#427=CARTESIAN_POINT('Origin',(51.0000008046627,2.5,-11.0000001639128));
#428=CARTESIAN_POINT('',(50.9999997317791,2.98023221378951E-8,-11.0000001639128));
#429=CARTESIAN_POINT('',(51.0000008046627,2.5,-10.7121451286265));
#430=CARTESIAN_POINT('Origin',(50.9999997317791,2.98023221378951E-8,0.));
#431=CARTESIAN_POINT('',(51.0000008046627,2.5,-11.0000001639128));
#432=CARTESIAN_POINT('',(51.0000008046627,2.5,-11.0000001639128));
#433=CARTESIAN_POINT('',(51.0000008046627,0.,-11.0000001639128));
#434=CARTESIAN_POINT('Origin',(51.0000008046627,2.5,-11.0000001639128));
#435=CARTESIAN_POINT('',(51.0000008046627,-2.5,-10.7121451147159));
#436=CARTESIAN_POINT('Origin',(50.9999997317791,2.98023221378951E-8,0.));
#437=CARTESIAN_POINT('',(51.0000008046627,-2.5,-11.0000001639128));
#438=CARTESIAN_POINT('',(51.0000008046627,0.,-11.0000001639128));
#439=CARTESIAN_POINT('',(51.0000008046627,-2.5,-11.0000001639128));
#440=CARTESIAN_POINT('Origin',(-18.0000002682209,2.98023221378951E-8,0.));
#441=CARTESIAN_POINT('',(-19.0000002682209,5.00000002980232,-6.12323399573677E-16));
#442=CARTESIAN_POINT('Origin',(-19.0000002682209,2.98023221378951E-8,0.));
#443=CARTESIAN_POINT('',(-18.0000002682209,5.00000002980232,-6.12323399573677E-16));
#444=CARTESIAN_POINT('',(-18.0000002682209,5.00000002980232,-6.12323399573677E-16));
#445=CARTESIAN_POINT('Origin',(-18.0000002682209,2.98023221378951E-8,0.));
#446=CARTESIAN_POINT('Origin',(-19.0000002682209,2.98023221378951E-8,0.));
#447=CARTESIAN_POINT('',(-19.0000002682209,-1.49999997019768,-1.83697019872103E-16));
#448=CARTESIAN_POINT('Origin',(-19.0000002682209,2.98023221378951E-8,0.));
#449=CARTESIAN_POINT('Origin',(-13.0000002682209,1.50000002980232,0.));
#450=CARTESIAN_POINT('',(-13.0000002682209,-1.49999997019768,-1.83697019872103E-16));
#451=CARTESIAN_POINT('Origin',(-13.0000002682209,2.98023221378951E-8,0.));
#452=CARTESIAN_POINT('Origin',(-15.5000002682209,2.98023221378951E-8,0.));
#453=CARTESIAN_POINT('',(-15.5000002682209,-1.49999997019768,-1.83697019872103E-16));
#454=CARTESIAN_POINT('Origin',(-18.0000002682209,8.75000002980232,0.));
#455=CARTESIAN_POINT('',(-18.0000002682209,-8.74999997019768,-1.07156594925393E-15));
#456=CARTESIAN_POINT('Origin',(-18.0000002682209,2.98023221378951E-8,0.));
#457=CARTESIAN_POINT('Origin',(15.9999997317791,2.98023221378951E-8,0.));
#458=CARTESIAN_POINT('',(49.9999997317791,-8.74999997019768,-1.07156594925393E-15));
#459=CARTESIAN_POINT('Origin',(49.9999997317791,2.98023221378951E-8,0.));
#460=CARTESIAN_POINT('',(15.9999997317791,-8.74999997019768,-1.07156594925393E-15));
#461=CARTESIAN_POINT('Origin',(50.4999997317791,2.98023221378951E-8,0.));
#462=CARTESIAN_POINT('',(50.9999997317791,-10.9999999701977,-1.34711147906209E-15));
#463=CARTESIAN_POINT('Origin',(50.9999997317791,2.98023221378951E-8,0.));
#464=CARTESIAN_POINT('',(50.4999997317791,-9.87499997019768,-1.20933871415801E-15));
#465=CARTESIAN_POINT('Origin',(50.9999997317791,2.98023221378951E-8,0.));
#466=CARTESIAN_POINT('Origin',(52.4999997317791,2.98023221378951E-8,0.));
#467=CARTESIAN_POINT('',(52.4999997317791,-2.5,-10.712142635859));
#468=CARTESIAN_POINT('',(52.4999997317791,2.5,-10.7121426497695));
#469=CARTESIAN_POINT('Origin',(52.5000008046627,-2.5,-12.2500001639128));
#470=CARTESIAN_POINT('',(53.0000008046627,-2.5,-13.5000001639128));
#471=CARTESIAN_POINT('',(53.0000008046627,-2.5,-13.5000001639128));
#472=CARTESIAN_POINT('',(54.0000008046627,-2.5,-13.5000001639128));
#473=CARTESIAN_POINT('Origin',(54.0000008046627,0.,-13.5000001639128));
#474=CARTESIAN_POINT('',(53.0000008046627,2.5,-13.5000001639128));
#475=CARTESIAN_POINT('',(53.0000008046627,0.,-13.5000001639128));
#476=CARTESIAN_POINT('',(54.0000008046627,2.5,-13.5000001639128));
#477=CARTESIAN_POINT('Origin',(53.0000008046627,0.,-13.5000001639128));
#478=CARTESIAN_POINT('',(53.0000008046627,2.5,-13.5000001639128));
#479=CARTESIAN_POINT('Origin',(52.5000008046627,2.5,-12.2500001639128));
#480=UNCERTAINTY_MEASURE_WITH_UNIT(LENGTH_MEASURE(0.01),#484,
'DISTANCE_ACCURACY_VALUE',
'Maximum model space distance between geometric entities at asserted c
onnectivities');
#481=UNCERTAINTY_MEASURE_WITH_UNIT(LENGTH_MEASURE(0.01),#484,
'DISTANCE_ACCURACY_VALUE',
'Maximum model space distance between geometric entities at asserted c
onnectivities');
#482=(
GEOMETRIC_REPRESENTATION_CONTEXT(3)
GLOBAL_UNCERTAINTY_ASSIGNED_CONTEXT((#480))
GLOBAL_UNIT_ASSIGNED_CONTEXT((#484,#486,#487))
REPRESENTATION_CONTEXT('','3D')
);
#483=(
GEOMETRIC_REPRESENTATION_CONTEXT(3)
GLOBAL_UNCERTAINTY_ASSIGNED_CONTEXT((#481))
GLOBAL_UNIT_ASSIGNED_CONTEXT((#484,#486,#487))
REPRESENTATION_CONTEXT('','3D')
);
#484=(
LENGTH_UNIT()
NAMED_UNIT(*)
SI_UNIT(.MILLI.,.METRE.)
);
#485=(
LENGTH_UNIT()
NAMED_UNIT(*)
SI_UNIT($,.METRE.)
);
#486=(
NAMED_UNIT(*)
PLANE_ANGLE_UNIT()
SI_UNIT($,.RADIAN.)
);
#487=(
NAMED_UNIT(*)
SI_UNIT($,.STERADIAN.)
SOLID_ANGLE_UNIT()
);
#488=SHAPE_DEFINITION_REPRESENTATION(#489,#490);
#489=PRODUCT_DEFINITION_SHAPE('',$,#492);
#490=SHAPE_REPRESENTATION('',(#286),#482);
#491=PRODUCT_DEFINITION_CONTEXT('part definition',#496,'design');
#492=PRODUCT_DEFINITION('(Non enregistr\X\E9)','(Non enregistr\X\E9)',#493,
#491);
#493=PRODUCT_DEFINITION_FORMATION('',$,#498);
#494=PRODUCT_RELATED_PRODUCT_CATEGORY('(Non enregistr\X\E9)',
'(Non enregistr\X\E9)',(#498));
#495=APPLICATION_PROTOCOL_DEFINITION('international standard',
'automotive_design',2009,#496);
#496=APPLICATION_CONTEXT(
'Core Data for Automotive Mechanical Design Process');
#497=PRODUCT_CONTEXT('part definition',#496,'mechanical');
#498=PRODUCT('(Non enregistr\X\E9)','(Non enregistr\X\E9)',$,(#497));
#499=PRESENTATION_STYLE_ASSIGNMENT((#500));
#500=SURFACE_STYLE_USAGE(.BOTH.,#501);
#501=SURFACE_SIDE_STYLE('',(#502));
#502=SURFACE_STYLE_FILL_AREA(#503);
#503=FILL_AREA_STYLE('Acier - Satin\X\E9',(#504));
#504=FILL_AREA_STYLE_COLOUR('Acier - Satin\X\E9',#505);
#505=COLOUR_RGB('Acier - Satin\X\E9',0.627450980392157,0.627450980392157,
0.627450980392157);
ENDSEC;
END-ISO-10303-21;
