ISO-10303-21;
HEADER;
FILE_DESCRIPTION(('CATIA V5 STEP','CAx-IF Rec.Pracs.--- Model Styling and Organization---1.4--- 2014-01-23','CAx-IF Rec.Pracs.---3D Tessellated Data Validation Properties---0.5---2014-09-14'),'2;1');

FILE_NAME('C:\\Users\\my603348\\Desktop\\Projets perso\\Bague.stp','2023-04-04T07:06:36+00:00',('none'),('none'),'CATIA Version 5-6 Release 2017 SP6','CATIA V5 STEP AP242','none');

FILE_SCHEMA(('AP242_MANAGED_MODEL_BASED_3D_ENGINEERING_MIM_LF  {1 0 10303 442 1 1 4}'));

ENDSEC;
DATA;
#5=PRODUCT('Part76','','',(#2)) ;
#2=PRODUCT_CONTEXT(' ',#1,'mechanical') ;
#1=APPLICATION_CONTEXT('managed model based 3d engineering') ;
#10=PRODUCT_DEFINITION('',' ',#6,#3) ;
#3=PRODUCT_DEFINITION_CONTEXT('part definition',#1,' ') ;
#11=PRODUCT_DEFINITION_SHAPE(' ',' ',#10) ;
#261=MECHANICAL_DESIGN_GEOMETRIC_PRESENTATION_REPRESENTATION(' ',(#29),#16) ;
#19=SHAPE_REPRESENTATION(' ',(#18),#16) ;
#7=PRODUCT_CATEGORY('part','specification') ;
#17=CARTESIAN_POINT(' ',(0.,0.,0.)) ;
#31=CARTESIAN_POINT('Axis2P3D Location',(0.,0.,0.)) ;
#36=CARTESIAN_POINT('Axis2P3D Location',(-6.,0.,0.)) ;
#40=CARTESIAN_POINT('Vertex',(-6.,2.53613303938E-014,36.)) ;
#42=CARTESIAN_POINT('Vertex',(-6.,-2.09526019169E-014,-36.)) ;
#45=CARTESIAN_POINT('Line Origine',(-3.,2.32478861943E-014,33.)) ;
#49=CARTESIAN_POINT('Vertex',(0.,2.11344419948E-014,30.)) ;
#52=CARTESIAN_POINT('Axis2P3D Location',(0.,0.,0.)) ;
#56=CARTESIAN_POINT('Vertex',(0.,-1.74605015974E-014,-30.)) ;
#59=CARTESIAN_POINT('Line Origine',(-3.,-1.92065517571E-014,-33.)) ;
#71=CARTESIAN_POINT('Axis2P3D Location',(-6.,0.,0.)) ;
#76=CARTESIAN_POINT('Axis2P3D Location',(0.,0.,0.)) ;
#88=CARTESIAN_POINT('Axis2P3D Location',(-17.,0.,0.)) ;
#93=CARTESIAN_POINT('Axis2P3D Location',(0.,0.,0.)) ;
#97=CARTESIAN_POINT('Vertex',(0.,-5.23536506635E-015,28.5)) ;
#99=CARTESIAN_POINT('Vertex',(0.,8.72560844392E-015,-28.5)) ;
#102=CARTESIAN_POINT('Line Origine',(-17.,-5.23536506635E-015,28.5)) ;
#106=CARTESIAN_POINT('Vertex',(-34.,-5.23536506635E-015,28.5)) ;
#109=CARTESIAN_POINT('Axis2P3D Location',(-34.,0.,0.)) ;
#113=CARTESIAN_POINT('Vertex',(-34.,8.72560844392E-015,-28.5)) ;
#116=CARTESIAN_POINT('Line Origine',(-17.,8.72560844392E-015,-28.5)) ;
#128=CARTESIAN_POINT('Axis2P3D Location',(0.,0.,0.)) ;
#133=CARTESIAN_POINT('Axis2P3D Location',(-34.,0.,0.)) ;
#145=CARTESIAN_POINT('Axis2P3D Location',(-34.,0.,0.)) ;
#150=CARTESIAN_POINT('Axis2P3D Location',(-34.,0.,0.)) ;
#154=CARTESIAN_POINT('Vertex',(-34.,3.58302035846E-014,30.)) ;
#156=CARTESIAN_POINT('Vertex',(-34.,-5.51091059616E-015,-30.)) ;
#159=CARTESIAN_POINT('Line Origine',(-31.,3.94132239431E-014,33.)) ;
#163=CARTESIAN_POINT('Vertex',(-28.,4.29962443015E-014,36.)) ;
#166=CARTESIAN_POINT('Axis2P3D Location',(-28.,0.,0.)) ;
#170=CARTESIAN_POINT('Vertex',(-28.,-6.6130927154E-015,-36.)) ;
#173=CARTESIAN_POINT('Line Origine',(-31.,-6.06200165578E-015,-33.)) ;
#185=CARTESIAN_POINT('Axis2P3D Location',(-34.,0.,0.)) ;
#190=CARTESIAN_POINT('Axis2P3D Location',(-28.,0.,0.)) ;
#202=CARTESIAN_POINT('Axis2P3D Location',(-17.,0.,0.)) ;
#207=CARTESIAN_POINT('Line Origine',(-17.,-6.6130927154E-015,36.)) ;
#212=CARTESIAN_POINT('Line Origine',(-17.,1.10218211923E-014,-36.)) ;
#231=CARTESIAN_POINT('Axis2P3D Location',(0.,0.,30.)) ;
#245=CARTESIAN_POINT('Axis2P3D Location',(-34.,0.,28.5)) ;
#8=PRODUCT_RELATED_PRODUCT_CATEGORY('part',$,(#5)) ;
#29=STYLED_ITEM(' ',(#28),#21) ;
#28=PRESENTATION_STYLE_ASSIGNMENT((#27)) ;
#27=SURFACE_STYLE_USAGE(.BOTH.,#26) ;
#26=SURFACE_SIDE_STYLE(' ',(#25)) ;
#25=SURFACE_STYLE_FILL_AREA(#24) ;
#24=FILL_AREA_STYLE(' ',(#23)) ;
#23=FILL_AREA_STYLE_COLOUR(' ',#22) ;
#47=VECTOR('Line Direction',#46,1.) ;
#61=VECTOR('Line Direction',#60,1.) ;
#104=VECTOR('Line Direction',#103,1.) ;
#118=VECTOR('Line Direction',#117,1.) ;
#161=VECTOR('Line Direction',#160,1.) ;
#175=VECTOR('Line Direction',#174,1.) ;
#209=VECTOR('Line Direction',#208,1.) ;
#214=VECTOR('Line Direction',#213,1.) ;
#32=DIRECTION('Axis2P3D Direction',(-1.,0.,0.)) ;
#33=DIRECTION('Axis2P3D XDirection',(0.,7.04481399828E-016,1.)) ;
#37=DIRECTION('Axis2P3D Direction',(-1.,0.,0.)) ;
#46=DIRECTION('Vector Direction',(-0.707106781187,4.98143575038E-016,0.707106781187)) ;
#53=DIRECTION('Axis2P3D Direction',(-1.,0.,0.)) ;
#60=DIRECTION('Vector Direction',(-0.707106781187,-4.11547969415E-016,-0.707106781187)) ;
#72=DIRECTION('Axis2P3D Direction',(-1.,0.,0.)) ;
#77=DIRECTION('Axis2P3D Direction',(-1.,0.,0.)) ;
#89=DIRECTION('Axis2P3D Direction',(-1.,0.,0.)) ;
#90=DIRECTION('Axis2P3D XDirection',(-0.,-1.83697019872E-016,1.)) ;
#94=DIRECTION('Axis2P3D Direction',(-1.,0.,0.)) ;
#103=DIRECTION('Vector Direction',(-1.,0.,0.)) ;
#110=DIRECTION('Axis2P3D Direction',(-1.,0.,0.)) ;
#117=DIRECTION('Vector Direction',(-1.,0.,0.)) ;
#129=DIRECTION('Axis2P3D Direction',(-1.,0.,0.)) ;
#134=DIRECTION('Axis2P3D Direction',(-1.,0.,0.)) ;
#146=DIRECTION('Axis2P3D Direction',(1.,-0.,-0.)) ;
#147=DIRECTION('Axis2P3D XDirection',(0.,6.12323399574E-017,1.)) ;
#151=DIRECTION('Axis2P3D Direction',(1.,-0.,0.)) ;
#160=DIRECTION('Vector Direction',(0.707106781187,8.44525997532E-016,0.707106781187)) ;
#167=DIRECTION('Axis2P3D Direction',(1.,-0.,0.)) ;
#174=DIRECTION('Vector Direction',(0.707106781187,-1.29893408435E-016,-0.707106781187)) ;
#186=DIRECTION('Axis2P3D Direction',(1.,-0.,0.)) ;
#191=DIRECTION('Axis2P3D Direction',(1.,-0.,0.)) ;
#203=DIRECTION('Axis2P3D Direction',(-1.,0.,0.)) ;
#204=DIRECTION('Axis2P3D XDirection',(-0.,-1.83697019872E-016,1.)) ;
#208=DIRECTION('Vector Direction',(-1.,0.,0.)) ;
#213=DIRECTION('Vector Direction',(-1.,0.,0.)) ;
#232=DIRECTION('Axis2P3D Direction',(-1.,0.,0.)) ;
#233=DIRECTION('Axis2P3D XDirection',(0.,1.,0.)) ;
#246=DIRECTION('Axis2P3D Direction',(-1.,0.,0.)) ;
#247=DIRECTION('Axis2P3D XDirection',(0.,1.,0.)) ;
#15=UNCERTAINTY_MEASURE_WITH_UNIT(LENGTH_MEASURE(0.005),#12,'distance_accuracy_value','CONFUSED CURVE UNCERTAINTY') ;
#18=AXIS2_PLACEMENT_3D(' ',#17,$,$) ;
#34=AXIS2_PLACEMENT_3D('Cone Axis2P3D',#31,#32,#33) ;
#38=AXIS2_PLACEMENT_3D('Circle Axis2P3D',#36,#37,$) ;
#54=AXIS2_PLACEMENT_3D('Circle Axis2P3D',#52,#53,$) ;
#73=AXIS2_PLACEMENT_3D('Circle Axis2P3D',#71,#72,$) ;
#78=AXIS2_PLACEMENT_3D('Circle Axis2P3D',#76,#77,$) ;
#91=AXIS2_PLACEMENT_3D('Cylinder Axis2P3D',#88,#89,#90) ;
#95=AXIS2_PLACEMENT_3D('Circle Axis2P3D',#93,#94,$) ;
#111=AXIS2_PLACEMENT_3D('Circle Axis2P3D',#109,#110,$) ;
#130=AXIS2_PLACEMENT_3D('Circle Axis2P3D',#128,#129,$) ;
#135=AXIS2_PLACEMENT_3D('Circle Axis2P3D',#133,#134,$) ;
#148=AXIS2_PLACEMENT_3D('Cone Axis2P3D',#145,#146,#147) ;
#152=AXIS2_PLACEMENT_3D('Circle Axis2P3D',#150,#151,$) ;
#168=AXIS2_PLACEMENT_3D('Circle Axis2P3D',#166,#167,$) ;
#187=AXIS2_PLACEMENT_3D('Circle Axis2P3D',#185,#186,$) ;
#192=AXIS2_PLACEMENT_3D('Circle Axis2P3D',#190,#191,$) ;
#205=AXIS2_PLACEMENT_3D('Cylinder Axis2P3D',#202,#203,#204) ;
#234=AXIS2_PLACEMENT_3D('Plane Axis2P3D',#231,#232,#233) ;
#248=AXIS2_PLACEMENT_3D('Plane Axis2P3D',#245,#246,#247) ;
#48=LINE('Line',#45,#47) ;
#62=LINE('Line',#59,#61) ;
#105=LINE('Line',#102,#104) ;
#119=LINE('Line',#116,#118) ;
#162=LINE('Line',#159,#161) ;
#176=LINE('Line',#173,#175) ;
#210=LINE('Line',#207,#209) ;
#215=LINE('Line',#212,#214) ;
#39=CIRCLE('generated circle',#38,36.) ;
#55=CIRCLE('generated circle',#54,30.) ;
#74=CIRCLE('generated circle',#73,36.) ;
#79=CIRCLE('generated circle',#78,30.) ;
#96=CIRCLE('generated circle',#95,28.5) ;
#112=CIRCLE('generated circle',#111,28.5) ;
#131=CIRCLE('generated circle',#130,28.5) ;
#136=CIRCLE('generated circle',#135,28.5) ;
#153=CIRCLE('generated circle',#152,30.) ;
#169=CIRCLE('generated circle',#168,36.) ;
#188=CIRCLE('generated circle',#187,30.) ;
#193=CIRCLE('generated circle',#192,36.) ;
#235=PLANE('',#234) ;
#249=PLANE('',#248) ;
#92=CYLINDRICAL_SURFACE('generated cylinder',#91,28.5) ;
#206=CYLINDRICAL_SURFACE('generated cylinder',#205,36.) ;
#35=CONICAL_SURFACE('Cone',#34,30.,0.785398163397) ;
#149=CONICAL_SURFACE('Cone',#148,30.,0.785398163397) ;
#243=FACE_BOUND('',#240,.T.) ;
#257=FACE_BOUND('',#254,.T.) ;
#44=EDGE_CURVE('',#41,#43,#39,.T.) ;
#51=EDGE_CURVE('',#41,#50,#48,.F.) ;
#58=EDGE_CURVE('',#50,#57,#55,.T.) ;
#63=EDGE_CURVE('',#43,#57,#62,.F.) ;
#75=EDGE_CURVE('',#43,#41,#74,.T.) ;
#80=EDGE_CURVE('',#57,#50,#79,.T.) ;
#101=EDGE_CURVE('',#98,#100,#96,.T.) ;
#108=EDGE_CURVE('',#98,#107,#105,.T.) ;
#115=EDGE_CURVE('',#107,#114,#112,.T.) ;
#120=EDGE_CURVE('',#100,#114,#119,.T.) ;
#132=EDGE_CURVE('',#100,#98,#131,.T.) ;
#137=EDGE_CURVE('',#114,#107,#136,.T.) ;
#158=EDGE_CURVE('',#155,#157,#153,.F.) ;
#165=EDGE_CURVE('',#155,#164,#162,.T.) ;
#172=EDGE_CURVE('',#164,#171,#169,.F.) ;
#177=EDGE_CURVE('',#157,#171,#176,.T.) ;
#189=EDGE_CURVE('',#157,#155,#188,.F.) ;
#194=EDGE_CURVE('',#171,#164,#193,.F.) ;
#211=EDGE_CURVE('',#164,#41,#210,.F.) ;
#216=EDGE_CURVE('',#171,#43,#215,.F.) ;
#30=CLOSED_SHELL('Closed Shell',(#70,#87,#127,#144,#184,#201,#223,#230,#244,#258)) ;
#260=SHAPE_REPRESENTATION_RELATIONSHIP(' ',' ',#19,#259) ;
#64=EDGE_LOOP('',(#65,#66,#67,#68)) ;
#81=EDGE_LOOP('',(#82,#83,#84,#85)) ;
#121=EDGE_LOOP('',(#122,#123,#124,#125)) ;
#138=EDGE_LOOP('',(#139,#140,#141,#142)) ;
#178=EDGE_LOOP('',(#179,#180,#181,#182)) ;
#195=EDGE_LOOP('',(#196,#197,#198,#199)) ;
#217=EDGE_LOOP('',(#218,#219,#220,#221)) ;
#224=EDGE_LOOP('',(#225,#226,#227,#228)) ;
#236=EDGE_LOOP('',(#237,#238)) ;
#240=EDGE_LOOP('',(#241,#242)) ;
#250=EDGE_LOOP('',(#251,#252)) ;
#254=EDGE_LOOP('',(#255,#256)) ;
#65=ORIENTED_EDGE('',*,*,#44,.F.) ;
#66=ORIENTED_EDGE('',*,*,#51,.T.) ;
#67=ORIENTED_EDGE('',*,*,#58,.T.) ;
#68=ORIENTED_EDGE('',*,*,#63,.F.) ;
#82=ORIENTED_EDGE('',*,*,#75,.F.) ;
#83=ORIENTED_EDGE('',*,*,#63,.T.) ;
#84=ORIENTED_EDGE('',*,*,#80,.T.) ;
#85=ORIENTED_EDGE('',*,*,#51,.F.) ;
#122=ORIENTED_EDGE('',*,*,#101,.F.) ;
#123=ORIENTED_EDGE('',*,*,#108,.T.) ;
#124=ORIENTED_EDGE('',*,*,#115,.T.) ;
#125=ORIENTED_EDGE('',*,*,#120,.F.) ;
#139=ORIENTED_EDGE('',*,*,#132,.F.) ;
#140=ORIENTED_EDGE('',*,*,#120,.T.) ;
#141=ORIENTED_EDGE('',*,*,#137,.T.) ;
#142=ORIENTED_EDGE('',*,*,#108,.F.) ;
#179=ORIENTED_EDGE('',*,*,#158,.F.) ;
#180=ORIENTED_EDGE('',*,*,#165,.T.) ;
#181=ORIENTED_EDGE('',*,*,#172,.T.) ;
#182=ORIENTED_EDGE('',*,*,#177,.F.) ;
#196=ORIENTED_EDGE('',*,*,#189,.F.) ;
#197=ORIENTED_EDGE('',*,*,#177,.T.) ;
#198=ORIENTED_EDGE('',*,*,#194,.T.) ;
#199=ORIENTED_EDGE('',*,*,#165,.F.) ;
#218=ORIENTED_EDGE('',*,*,#172,.F.) ;
#219=ORIENTED_EDGE('',*,*,#211,.T.) ;
#220=ORIENTED_EDGE('',*,*,#44,.T.) ;
#221=ORIENTED_EDGE('',*,*,#216,.F.) ;
#225=ORIENTED_EDGE('',*,*,#194,.F.) ;
#226=ORIENTED_EDGE('',*,*,#216,.T.) ;
#227=ORIENTED_EDGE('',*,*,#75,.T.) ;
#228=ORIENTED_EDGE('',*,*,#211,.F.) ;
#237=ORIENTED_EDGE('',*,*,#58,.F.) ;
#238=ORIENTED_EDGE('',*,*,#80,.F.) ;
#241=ORIENTED_EDGE('',*,*,#132,.T.) ;
#242=ORIENTED_EDGE('',*,*,#101,.T.) ;
#251=ORIENTED_EDGE('',*,*,#189,.T.) ;
#252=ORIENTED_EDGE('',*,*,#158,.T.) ;
#255=ORIENTED_EDGE('',*,*,#115,.F.) ;
#256=ORIENTED_EDGE('',*,*,#137,.F.) ;
#21=MANIFOLD_SOLID_BREP('PartBody',#30) ;
#41=VERTEX_POINT('',#40) ;
#43=VERTEX_POINT('',#42) ;
#50=VERTEX_POINT('',#49) ;
#57=VERTEX_POINT('',#56) ;
#98=VERTEX_POINT('',#97) ;
#100=VERTEX_POINT('',#99) ;
#107=VERTEX_POINT('',#106) ;
#114=VERTEX_POINT('',#113) ;
#155=VERTEX_POINT('',#154) ;
#157=VERTEX_POINT('',#156) ;
#164=VERTEX_POINT('',#163) ;
#171=VERTEX_POINT('',#170) ;
#259=ADVANCED_BREP_SHAPE_REPRESENTATION('NONE',(#21),#16) ;
#70=ADVANCED_FACE('PartBody',(#69),#35,.T.) ;
#87=ADVANCED_FACE('PartBody',(#86),#35,.T.) ;
#127=ADVANCED_FACE('PartBody',(#126),#92,.F.) ;
#144=ADVANCED_FACE('PartBody',(#143),#92,.F.) ;
#184=ADVANCED_FACE('PartBody',(#183),#149,.T.) ;
#201=ADVANCED_FACE('PartBody',(#200),#149,.T.) ;
#223=ADVANCED_FACE('PartBody',(#222),#206,.T.) ;
#230=ADVANCED_FACE('PartBody',(#229),#206,.T.) ;
#244=ADVANCED_FACE('PartBody',(#239,#243),#235,.F.) ;
#258=ADVANCED_FACE('PartBody',(#253,#257),#249,.T.) ;
#4=APPLICATION_PROTOCOL_DEFINITION('international standard','ap242_managed_model_based_3d_engineering',2014,#1) ;
#22=COLOUR_RGB('Colour',0.823529411765,0.823529411765,1.) ;
#69=FACE_OUTER_BOUND('',#64,.T.) ;
#86=FACE_OUTER_BOUND('',#81,.T.) ;
#126=FACE_OUTER_BOUND('',#121,.T.) ;
#143=FACE_OUTER_BOUND('',#138,.T.) ;
#183=FACE_OUTER_BOUND('',#178,.T.) ;
#200=FACE_OUTER_BOUND('',#195,.T.) ;
#222=FACE_OUTER_BOUND('',#217,.T.) ;
#229=FACE_OUTER_BOUND('',#224,.T.) ;
#239=FACE_OUTER_BOUND('',#236,.T.) ;
#253=FACE_OUTER_BOUND('',#250,.T.) ;
#9=PRODUCT_CATEGORY_RELATIONSHIP(' ',' ',#7,#8) ;
#6=PRODUCT_DEFINITION_FORMATION_WITH_SPECIFIED_SOURCE('',' ',#5,.NOT_KNOWN.) ;
#20=SHAPE_DEFINITION_REPRESENTATION(#11,#19) ;
#12=(LENGTH_UNIT()NAMED_UNIT(*)SI_UNIT(.MILLI.,.METRE.)) ;
#13=(NAMED_UNIT(*)PLANE_ANGLE_UNIT()SI_UNIT($,.RADIAN.)) ;
#14=(NAMED_UNIT(*)SI_UNIT($,.STERADIAN.)SOLID_ANGLE_UNIT()) ;
#16=(GEOMETRIC_REPRESENTATION_CONTEXT(3)GLOBAL_UNCERTAINTY_ASSIGNED_CONTEXT((#15))GLOBAL_UNIT_ASSIGNED_CONTEXT((#12,#13,#14))REPRESENTATION_CONTEXT(' ',' ')) ;
ENDSEC;
END-ISO-10303-21;
