ISO-10303-21;
HEADER;
/* Generated by software containing ST-Developer
 * from STEP Tools, Inc. (www.steptools.com) 
 */

FILE_DESCRIPTION(
/* description */ (''),
/* implementation_level */ '2;1');

FILE_NAME(
/* name */ 'Tendeur de courroie-6mm Ind_A.step',
/* time_stamp */ '2023-04-26T13:07:22+02:00',
/* author */ (''),
/* organization */ (''),
/* preprocessor_version */ 'ST-DEVELOPER v19.2',
/* originating_system */ 'Autodesk Translation Framework v12.4.0.73',
/* authorisation */ '');

FILE_SCHEMA (('AUTOMOTIVE_DESIGN { 1 0 10303 214 3 1 1 }'));
ENDSEC;

DATA;
#10=MECHANICAL_DESIGN_GEOMETRIC_PRESENTATION_REPRESENTATION('',(#13),#475);
#11=SHAPE_REPRESENTATION_RELATIONSHIP('SRR','None',#482,#12);
#12=ADVANCED_BREP_SHAPE_REPRESENTATION('',(#14),#474);
#13=STYLED_ITEM('',(#491),#14);
#14=MANIFOLD_SOLID_BREP('Corps1',#271);
#15=FACE_BOUND('',#72,.T.);
#16=FACE_BOUND('',#73,.T.);
#17=FACE_BOUND('',#74,.T.);
#18=FACE_BOUND('',#76,.T.);
#19=FACE_BOUND('',#77,.T.);
#20=FACE_BOUND('',#78,.T.);
#21=CIRCLE('',#287,3.99999701170044);
#22=CIRCLE('',#288,3.99999701170044);
#23=CIRCLE('',#291,3.99999701170044);
#24=CIRCLE('',#292,3.99999701170044);
#25=CIRCLE('',#294,3.99999999999999);
#26=CIRCLE('',#295,3.99999999999999);
#27=CIRCLE('',#297,4.00000000000002);
#28=CIRCLE('',#298,4.00000000000002);
#29=CIRCLE('',#300,136.296277490866);
#30=CIRCLE('',#301,136.296277490866);
#31=CIRCLE('',#303,20.0000005401974);
#32=CIRCLE('',#304,20.0000005401974);
#33=CIRCLE('',#307,20.0000043865917);
#34=CIRCLE('',#308,20.0000043865917);
#35=CIRCLE('',#311,20.0000005401975);
#36=CIRCLE('',#312,20.0000005401975);
#37=CYLINDRICAL_SURFACE('',#286,3.99999701170044);
#38=CYLINDRICAL_SURFACE('',#290,3.99999701170044);
#39=CYLINDRICAL_SURFACE('',#293,3.99999999999999);
#40=CYLINDRICAL_SURFACE('',#296,4.00000000000002);
#41=CYLINDRICAL_SURFACE('',#299,136.296277490866);
#42=CYLINDRICAL_SURFACE('',#302,20.0000005401974);
#43=CYLINDRICAL_SURFACE('',#306,20.0000043865917);
#44=CYLINDRICAL_SURFACE('',#310,20.0000005401975);
#45=FACE_OUTER_BOUND('',#59,.T.);
#46=FACE_OUTER_BOUND('',#60,.T.);
#47=FACE_OUTER_BOUND('',#61,.T.);
#48=FACE_OUTER_BOUND('',#62,.T.);
#49=FACE_OUTER_BOUND('',#63,.T.);
#50=FACE_OUTER_BOUND('',#64,.T.);
#51=FACE_OUTER_BOUND('',#65,.T.);
#52=FACE_OUTER_BOUND('',#66,.T.);
#53=FACE_OUTER_BOUND('',#67,.T.);
#54=FACE_OUTER_BOUND('',#68,.T.);
#55=FACE_OUTER_BOUND('',#69,.T.);
#56=FACE_OUTER_BOUND('',#70,.T.);
#57=FACE_OUTER_BOUND('',#71,.T.);
#58=FACE_OUTER_BOUND('',#75,.T.);
#59=EDGE_LOOP('',(#179,#180,#181,#182));
#60=EDGE_LOOP('',(#183,#184,#185,#186));
#61=EDGE_LOOP('',(#187,#188,#189,#190));
#62=EDGE_LOOP('',(#191,#192,#193,#194));
#63=EDGE_LOOP('',(#195,#196,#197,#198));
#64=EDGE_LOOP('',(#199,#200,#201,#202));
#65=EDGE_LOOP('',(#203,#204,#205,#206));
#66=EDGE_LOOP('',(#207,#208,#209,#210));
#67=EDGE_LOOP('',(#211,#212,#213,#214));
#68=EDGE_LOOP('',(#215,#216,#217,#218));
#69=EDGE_LOOP('',(#219,#220,#221,#222));
#70=EDGE_LOOP('',(#223,#224,#225,#226));
#71=EDGE_LOOP('',(#227,#228,#229,#230,#231,#232));
#72=EDGE_LOOP('',(#233));
#73=EDGE_LOOP('',(#234));
#74=EDGE_LOOP('',(#235,#236,#237,#238));
#75=EDGE_LOOP('',(#239,#240,#241,#242,#243,#244));
#76=EDGE_LOOP('',(#245));
#77=EDGE_LOOP('',(#246));
#78=EDGE_LOOP('',(#247,#248,#249,#250));
#79=LINE('',#401,#99);
#80=LINE('',#403,#100);
#81=LINE('',#405,#101);
#82=LINE('',#406,#102);
#83=LINE('',#412,#103);
#84=LINE('',#415,#104);
#85=LINE('',#417,#105);
#86=LINE('',#418,#106);
#87=LINE('',#426,#107);
#88=LINE('',#432,#108);
#89=LINE('',#439,#109);
#90=LINE('',#442,#110);
#91=LINE('',#448,#111);
#92=LINE('',#451,#112);
#93=LINE('',#453,#113);
#94=LINE('',#454,#114);
#95=LINE('',#460,#115);
#96=LINE('',#463,#116);
#97=LINE('',#465,#117);
#98=LINE('',#466,#118);
#99=VECTOR('',#319,10.);
#100=VECTOR('',#320,10.);
#101=VECTOR('',#321,10.);
#102=VECTOR('',#322,10.);
#103=VECTOR('',#329,10.);
#104=VECTOR('',#332,10.);
#105=VECTOR('',#333,10.);
#106=VECTOR('',#334,10.);
#107=VECTOR('',#345,3.99999999999999);
#108=VECTOR('',#352,4.00000000000002);
#109=VECTOR('',#359,10.);
#110=VECTOR('',#362,10.);
#111=VECTOR('',#369,10.);
#112=VECTOR('',#372,10.);
#113=VECTOR('',#373,10.);
#114=VECTOR('',#374,10.);
#115=VECTOR('',#381,10.);
#116=VECTOR('',#384,10.);
#117=VECTOR('',#385,10.);
#118=VECTOR('',#386,10.);
#119=VERTEX_POINT('',#399);
#120=VERTEX_POINT('',#400);
#121=VERTEX_POINT('',#402);
#122=VERTEX_POINT('',#404);
#123=VERTEX_POINT('',#408);
#124=VERTEX_POINT('',#410);
#125=VERTEX_POINT('',#414);
#126=VERTEX_POINT('',#416);
#127=VERTEX_POINT('',#423);
#128=VERTEX_POINT('',#425);
#129=VERTEX_POINT('',#429);
#130=VERTEX_POINT('',#431);
#131=VERTEX_POINT('',#435);
#132=VERTEX_POINT('',#436);
#133=VERTEX_POINT('',#438);
#134=VERTEX_POINT('',#440);
#135=VERTEX_POINT('',#444);
#136=VERTEX_POINT('',#446);
#137=VERTEX_POINT('',#450);
#138=VERTEX_POINT('',#452);
#139=VERTEX_POINT('',#456);
#140=VERTEX_POINT('',#458);
#141=VERTEX_POINT('',#462);
#142=VERTEX_POINT('',#464);
#143=EDGE_CURVE('',#119,#120,#79,.T.);
#144=EDGE_CURVE('',#120,#121,#80,.T.);
#145=EDGE_CURVE('',#122,#121,#81,.T.);
#146=EDGE_CURVE('',#119,#122,#82,.T.);
#147=EDGE_CURVE('',#123,#119,#21,.T.);
#148=EDGE_CURVE('',#124,#122,#22,.T.);
#149=EDGE_CURVE('',#123,#124,#83,.T.);
#150=EDGE_CURVE('',#125,#123,#84,.T.);
#151=EDGE_CURVE('',#126,#124,#85,.T.);
#152=EDGE_CURVE('',#125,#126,#86,.T.);
#153=EDGE_CURVE('',#120,#125,#23,.T.);
#154=EDGE_CURVE('',#121,#126,#24,.T.);
#155=EDGE_CURVE('',#127,#127,#25,.T.);
#156=EDGE_CURVE('',#127,#128,#87,.T.);
#157=EDGE_CURVE('',#128,#128,#26,.T.);
#158=EDGE_CURVE('',#129,#129,#27,.T.);
#159=EDGE_CURVE('',#129,#130,#88,.T.);
#160=EDGE_CURVE('',#130,#130,#28,.T.);
#161=EDGE_CURVE('',#131,#132,#29,.T.);
#162=EDGE_CURVE('',#132,#133,#89,.T.);
#163=EDGE_CURVE('',#134,#133,#30,.T.);
#164=EDGE_CURVE('',#131,#134,#90,.T.);
#165=EDGE_CURVE('',#135,#131,#31,.T.);
#166=EDGE_CURVE('',#136,#134,#32,.T.);
#167=EDGE_CURVE('',#135,#136,#91,.T.);
#168=EDGE_CURVE('',#137,#135,#92,.T.);
#169=EDGE_CURVE('',#138,#136,#93,.T.);
#170=EDGE_CURVE('',#137,#138,#94,.T.);
#171=EDGE_CURVE('',#139,#137,#33,.T.);
#172=EDGE_CURVE('',#140,#138,#34,.T.);
#173=EDGE_CURVE('',#139,#140,#95,.T.);
#174=EDGE_CURVE('',#141,#139,#96,.T.);
#175=EDGE_CURVE('',#142,#140,#97,.T.);
#176=EDGE_CURVE('',#141,#142,#98,.T.);
#177=EDGE_CURVE('',#132,#141,#35,.T.);
#178=EDGE_CURVE('',#133,#142,#36,.T.);
#179=ORIENTED_EDGE('',*,*,#143,.T.);
#180=ORIENTED_EDGE('',*,*,#144,.T.);
#181=ORIENTED_EDGE('',*,*,#145,.F.);
#182=ORIENTED_EDGE('',*,*,#146,.F.);
#183=ORIENTED_EDGE('',*,*,#147,.T.);
#184=ORIENTED_EDGE('',*,*,#146,.T.);
#185=ORIENTED_EDGE('',*,*,#148,.F.);
#186=ORIENTED_EDGE('',*,*,#149,.F.);
#187=ORIENTED_EDGE('',*,*,#150,.T.);
#188=ORIENTED_EDGE('',*,*,#149,.T.);
#189=ORIENTED_EDGE('',*,*,#151,.F.);
#190=ORIENTED_EDGE('',*,*,#152,.F.);
#191=ORIENTED_EDGE('',*,*,#153,.T.);
#192=ORIENTED_EDGE('',*,*,#152,.T.);
#193=ORIENTED_EDGE('',*,*,#154,.F.);
#194=ORIENTED_EDGE('',*,*,#144,.F.);
#195=ORIENTED_EDGE('',*,*,#155,.F.);
#196=ORIENTED_EDGE('',*,*,#156,.T.);
#197=ORIENTED_EDGE('',*,*,#157,.T.);
#198=ORIENTED_EDGE('',*,*,#156,.F.);
#199=ORIENTED_EDGE('',*,*,#158,.F.);
#200=ORIENTED_EDGE('',*,*,#159,.T.);
#201=ORIENTED_EDGE('',*,*,#160,.T.);
#202=ORIENTED_EDGE('',*,*,#159,.F.);
#203=ORIENTED_EDGE('',*,*,#161,.T.);
#204=ORIENTED_EDGE('',*,*,#162,.T.);
#205=ORIENTED_EDGE('',*,*,#163,.F.);
#206=ORIENTED_EDGE('',*,*,#164,.F.);
#207=ORIENTED_EDGE('',*,*,#165,.T.);
#208=ORIENTED_EDGE('',*,*,#164,.T.);
#209=ORIENTED_EDGE('',*,*,#166,.F.);
#210=ORIENTED_EDGE('',*,*,#167,.F.);
#211=ORIENTED_EDGE('',*,*,#168,.T.);
#212=ORIENTED_EDGE('',*,*,#167,.T.);
#213=ORIENTED_EDGE('',*,*,#169,.F.);
#214=ORIENTED_EDGE('',*,*,#170,.F.);
#215=ORIENTED_EDGE('',*,*,#171,.T.);
#216=ORIENTED_EDGE('',*,*,#170,.T.);
#217=ORIENTED_EDGE('',*,*,#172,.F.);
#218=ORIENTED_EDGE('',*,*,#173,.F.);
#219=ORIENTED_EDGE('',*,*,#174,.T.);
#220=ORIENTED_EDGE('',*,*,#173,.T.);
#221=ORIENTED_EDGE('',*,*,#175,.F.);
#222=ORIENTED_EDGE('',*,*,#176,.F.);
#223=ORIENTED_EDGE('',*,*,#177,.T.);
#224=ORIENTED_EDGE('',*,*,#176,.T.);
#225=ORIENTED_EDGE('',*,*,#178,.F.);
#226=ORIENTED_EDGE('',*,*,#162,.F.);
#227=ORIENTED_EDGE('',*,*,#178,.T.);
#228=ORIENTED_EDGE('',*,*,#175,.T.);
#229=ORIENTED_EDGE('',*,*,#172,.T.);
#230=ORIENTED_EDGE('',*,*,#169,.T.);
#231=ORIENTED_EDGE('',*,*,#166,.T.);
#232=ORIENTED_EDGE('',*,*,#163,.T.);
#233=ORIENTED_EDGE('',*,*,#158,.T.);
#234=ORIENTED_EDGE('',*,*,#155,.T.);
#235=ORIENTED_EDGE('',*,*,#154,.T.);
#236=ORIENTED_EDGE('',*,*,#151,.T.);
#237=ORIENTED_EDGE('',*,*,#148,.T.);
#238=ORIENTED_EDGE('',*,*,#145,.T.);
#239=ORIENTED_EDGE('',*,*,#177,.F.);
#240=ORIENTED_EDGE('',*,*,#161,.F.);
#241=ORIENTED_EDGE('',*,*,#165,.F.);
#242=ORIENTED_EDGE('',*,*,#168,.F.);
#243=ORIENTED_EDGE('',*,*,#171,.F.);
#244=ORIENTED_EDGE('',*,*,#174,.F.);
#245=ORIENTED_EDGE('',*,*,#160,.F.);
#246=ORIENTED_EDGE('',*,*,#157,.F.);
#247=ORIENTED_EDGE('',*,*,#153,.F.);
#248=ORIENTED_EDGE('',*,*,#143,.F.);
#249=ORIENTED_EDGE('',*,*,#147,.F.);
#250=ORIENTED_EDGE('',*,*,#150,.F.);
#251=PLANE('',#285);
#252=PLANE('',#289);
#253=PLANE('',#305);
#254=PLANE('',#309);
#255=PLANE('',#313);
#256=PLANE('',#314);
#257=ADVANCED_FACE('',(#45),#251,.T.);
#258=ADVANCED_FACE('',(#46),#37,.F.);
#259=ADVANCED_FACE('',(#47),#252,.T.);
#260=ADVANCED_FACE('',(#48),#38,.F.);
#261=ADVANCED_FACE('',(#49),#39,.F.);
#262=ADVANCED_FACE('',(#50),#40,.F.);
#263=ADVANCED_FACE('',(#51),#41,.F.);
#264=ADVANCED_FACE('',(#52),#42,.T.);
#265=ADVANCED_FACE('',(#53),#253,.T.);
#266=ADVANCED_FACE('',(#54),#43,.T.);
#267=ADVANCED_FACE('',(#55),#254,.T.);
#268=ADVANCED_FACE('',(#56),#44,.T.);
#269=ADVANCED_FACE('',(#57,#15,#16,#17),#255,.T.);
#270=ADVANCED_FACE('',(#58,#18,#19,#20),#256,.F.);
#271=CLOSED_SHELL('',(#257,#258,#259,#260,#261,#262,#263,#264,#265,#266,
#267,#268,#269,#270));
#272=DERIVED_UNIT_ELEMENT(#274,1.);
#273=DERIVED_UNIT_ELEMENT(#477,-3.);
#274=(
MASS_UNIT()
NAMED_UNIT(*)
SI_UNIT(.KILO.,.GRAM.)
);
#275=DERIVED_UNIT((#272,#273));
#276=MEASURE_REPRESENTATION_ITEM('density measure',
POSITIVE_RATIO_MEASURE(7850.),#275);
#277=PROPERTY_DEFINITION_REPRESENTATION(#282,#279);
#278=PROPERTY_DEFINITION_REPRESENTATION(#283,#280);
#279=REPRESENTATION('material name',(#281),#474);
#280=REPRESENTATION('density',(#276),#474);
#281=DESCRIPTIVE_REPRESENTATION_ITEM('Acier','Acier');
#282=PROPERTY_DEFINITION('material property','material name',#484);
#283=PROPERTY_DEFINITION('material property','density of part',#484);
#284=AXIS2_PLACEMENT_3D('',#397,#315,#316);
#285=AXIS2_PLACEMENT_3D('',#398,#317,#318);
#286=AXIS2_PLACEMENT_3D('',#407,#323,#324);
#287=AXIS2_PLACEMENT_3D('',#409,#325,#326);
#288=AXIS2_PLACEMENT_3D('',#411,#327,#328);
#289=AXIS2_PLACEMENT_3D('',#413,#330,#331);
#290=AXIS2_PLACEMENT_3D('',#419,#335,#336);
#291=AXIS2_PLACEMENT_3D('',#420,#337,#338);
#292=AXIS2_PLACEMENT_3D('',#421,#339,#340);
#293=AXIS2_PLACEMENT_3D('',#422,#341,#342);
#294=AXIS2_PLACEMENT_3D('',#424,#343,#344);
#295=AXIS2_PLACEMENT_3D('',#427,#346,#347);
#296=AXIS2_PLACEMENT_3D('',#428,#348,#349);
#297=AXIS2_PLACEMENT_3D('',#430,#350,#351);
#298=AXIS2_PLACEMENT_3D('',#433,#353,#354);
#299=AXIS2_PLACEMENT_3D('',#434,#355,#356);
#300=AXIS2_PLACEMENT_3D('',#437,#357,#358);
#301=AXIS2_PLACEMENT_3D('',#441,#360,#361);
#302=AXIS2_PLACEMENT_3D('',#443,#363,#364);
#303=AXIS2_PLACEMENT_3D('',#445,#365,#366);
#304=AXIS2_PLACEMENT_3D('',#447,#367,#368);
#305=AXIS2_PLACEMENT_3D('',#449,#370,#371);
#306=AXIS2_PLACEMENT_3D('',#455,#375,#376);
#307=AXIS2_PLACEMENT_3D('',#457,#377,#378);
#308=AXIS2_PLACEMENT_3D('',#459,#379,#380);
#309=AXIS2_PLACEMENT_3D('',#461,#382,#383);
#310=AXIS2_PLACEMENT_3D('',#467,#387,#388);
#311=AXIS2_PLACEMENT_3D('',#468,#389,#390);
#312=AXIS2_PLACEMENT_3D('',#469,#391,#392);
#313=AXIS2_PLACEMENT_3D('',#470,#393,#394);
#314=AXIS2_PLACEMENT_3D('',#471,#395,#396);
#315=DIRECTION('axis',(0.,0.,1.));
#316=DIRECTION('refdir',(1.,0.,0.));
#317=DIRECTION('center_axis',(-1.,0.,0.));
#318=DIRECTION('ref_axis',(0.,-1.,0.));
#319=DIRECTION('',(0.,-1.,0.));
#320=DIRECTION('',(0.,0.,1.));
#321=DIRECTION('',(0.,-1.,0.));
#322=DIRECTION('',(0.,0.,1.));
#323=DIRECTION('center_axis',(0.,0.,1.));
#324=DIRECTION('ref_axis',(-7.47075724295742E-7,0.999999999999721,0.));
#325=DIRECTION('center_axis',(0.,0.,-1.));
#326=DIRECTION('ref_axis',(-7.47075724295742E-7,0.999999999999721,0.));
#327=DIRECTION('center_axis',(0.,0.,-1.));
#328=DIRECTION('ref_axis',(-7.47075724295742E-7,0.999999999999721,0.));
#329=DIRECTION('',(0.,0.,1.));
#330=DIRECTION('center_axis',(1.,0.,0.));
#331=DIRECTION('ref_axis',(0.,1.,0.));
#332=DIRECTION('',(0.,1.,0.));
#333=DIRECTION('',(0.,1.,0.));
#334=DIRECTION('',(0.,0.,1.));
#335=DIRECTION('center_axis',(0.,0.,1.));
#336=DIRECTION('ref_axis',(-7.47075744216465E-7,-0.999999999999721,0.));
#337=DIRECTION('center_axis',(0.,0.,-1.));
#338=DIRECTION('ref_axis',(0.999999999999721,7.47075728736638E-7,0.));
#339=DIRECTION('center_axis',(0.,0.,-1.));
#340=DIRECTION('ref_axis',(0.999999999999721,7.47075728736638E-7,0.));
#341=DIRECTION('center_axis',(0.,0.,1.));
#342=DIRECTION('ref_axis',(1.,0.,0.));
#343=DIRECTION('center_axis',(0.,0.,-1.));
#344=DIRECTION('ref_axis',(1.,0.,0.));
#345=DIRECTION('',(0.,0.,-1.));
#346=DIRECTION('center_axis',(0.,0.,-1.));
#347=DIRECTION('ref_axis',(1.,0.,0.));
#348=DIRECTION('center_axis',(0.,0.,1.));
#349=DIRECTION('ref_axis',(1.,-8.8817841970012E-15,0.));
#350=DIRECTION('center_axis',(0.,0.,-1.));
#351=DIRECTION('ref_axis',(1.,-8.8817841970012E-15,0.));
#352=DIRECTION('',(0.,0.,-1.));
#353=DIRECTION('center_axis',(0.,0.,-1.));
#354=DIRECTION('ref_axis',(1.,-8.8817841970012E-15,0.));
#355=DIRECTION('center_axis',(0.,0.,1.));
#356=DIRECTION('ref_axis',(0.171591975441643,-0.985168104418751,0.));
#357=DIRECTION('center_axis',(0.,0.,-1.));
#358=DIRECTION('ref_axis',(0.171591975441643,-0.985168104418751,0.));
#359=DIRECTION('',(0.,0.,1.));
#360=DIRECTION('center_axis',(0.,0.,-1.));
#361=DIRECTION('ref_axis',(0.171591975441643,-0.985168104418751,0.));
#362=DIRECTION('',(0.,0.,1.));
#363=DIRECTION('center_axis',(0.,0.,1.));
#364=DIRECTION('ref_axis',(0.826573064587742,-0.562829431442624,0.));
#365=DIRECTION('center_axis',(0.,0.,1.));
#366=DIRECTION('ref_axis',(0.826573064587742,-0.562829431442624,0.));
#367=DIRECTION('center_axis',(0.,0.,1.));
#368=DIRECTION('ref_axis',(0.826573064587742,-0.562829431442624,0.));
#369=DIRECTION('',(0.,0.,1.));
#370=DIRECTION('center_axis',(0.826573014955474,-0.562829504332722,0.));
#371=DIRECTION('ref_axis',(0.562829504332722,0.826573014955474,0.));
#372=DIRECTION('',(0.562829504332722,0.826573014955474,0.));
#373=DIRECTION('',(0.562829504332722,0.826573014955474,0.));
#374=DIRECTION('',(0.,0.,1.));
#375=DIRECTION('center_axis',(0.,0.,1.));
#376=DIRECTION('ref_axis',(-0.826572843708119,-0.562829755826993,0.));
#377=DIRECTION('center_axis',(0.,0.,1.));
#378=DIRECTION('ref_axis',(-0.826572843708119,-0.562829755826993,0.));
#379=DIRECTION('center_axis',(0.,0.,1.));
#380=DIRECTION('ref_axis',(-0.826572843708119,-0.562829755826993,0.));
#381=DIRECTION('',(0.,0.,1.));
#382=DIRECTION('center_axis',(-0.826573014955474,-0.562829504332723,0.));
#383=DIRECTION('ref_axis',(0.562829504332723,-0.826573014955474,0.));
#384=DIRECTION('',(0.562829504332723,-0.826573014955474,0.));
#385=DIRECTION('',(0.562829504332723,-0.826573014955474,0.));
#386=DIRECTION('',(0.,0.,1.));
#387=DIRECTION('center_axis',(0.,0.,1.));
#388=DIRECTION('ref_axis',(0.171592708451924,0.985167976746165,0.));
#389=DIRECTION('center_axis',(0.,0.,1.));
#390=DIRECTION('ref_axis',(0.171592708451924,0.985167976746165,0.));
#391=DIRECTION('center_axis',(0.,0.,1.));
#392=DIRECTION('ref_axis',(0.171592708451924,0.985167976746165,0.));
#393=DIRECTION('center_axis',(0.,0.,1.));
#394=DIRECTION('ref_axis',(1.,0.,0.));
#395=DIRECTION('center_axis',(0.,0.,1.));
#396=DIRECTION('ref_axis',(1.,0.,0.));
#397=CARTESIAN_POINT('',(0.,0.,0.));
#398=CARTESIAN_POINT('Origin',(210.819204,167.302457,0.));
#399=CARTESIAN_POINT('',(210.819204,167.302457,0.));
#400=CARTESIAN_POINT('',(210.819204,140.302457,0.));
#401=CARTESIAN_POINT('',(210.819204,167.302457,0.));
#402=CARTESIAN_POINT('',(210.819204,140.302457,6.));
#403=CARTESIAN_POINT('',(210.819204,140.302457,0.));
#404=CARTESIAN_POINT('',(210.819204,167.302457,6.));
#405=CARTESIAN_POINT('',(210.819204,167.302457,6.));
#406=CARTESIAN_POINT('',(210.819204,167.302457,0.));
#407=CARTESIAN_POINT('Origin',(206.819206988301,167.302459988301,0.));
#408=CARTESIAN_POINT('',(202.819204,167.302457,0.));
#409=CARTESIAN_POINT('Origin',(206.819206988301,167.302459988301,0.));
#410=CARTESIAN_POINT('',(202.819204,167.302457,6.));
#411=CARTESIAN_POINT('Origin',(206.819206988301,167.302459988301,6.));
#412=CARTESIAN_POINT('',(202.819204,167.302457,0.));
#413=CARTESIAN_POINT('Origin',(202.819204,140.302457,0.));
#414=CARTESIAN_POINT('',(202.819204,140.302457,0.));
#415=CARTESIAN_POINT('',(202.819204,140.302457,0.));
#416=CARTESIAN_POINT('',(202.819204,140.302457,6.));
#417=CARTESIAN_POINT('',(202.819204,140.302457,6.));
#418=CARTESIAN_POINT('',(202.819204,140.302457,0.));
#419=CARTESIAN_POINT('Origin',(206.819206988301,140.302454011699,0.));
#420=CARTESIAN_POINT('Origin',(206.819206988301,140.302454011699,0.));
#421=CARTESIAN_POINT('Origin',(206.819206988301,140.302454011699,6.));
#422=CARTESIAN_POINT('Origin',(178.319204,181.35,0.));
#423=CARTESIAN_POINT('',(174.319204,181.35,6.));
#424=CARTESIAN_POINT('Origin',(178.319204,181.35,6.));
#425=CARTESIAN_POINT('',(174.319204,181.35,0.));
#426=CARTESIAN_POINT('',(174.319204,181.35,0.));
#427=CARTESIAN_POINT('Origin',(178.319204,181.35,0.));
#428=CARTESIAN_POINT('Origin',(235.319204,181.35,0.));
#429=CARTESIAN_POINT('',(231.319204,181.35,6.));
#430=CARTESIAN_POINT('Origin',(235.319204,181.35,6.));
#431=CARTESIAN_POINT('',(231.319204,181.35,0.));
#432=CARTESIAN_POINT('',(231.319204,181.35,0.));
#433=CARTESIAN_POINT('Origin',(235.319204,181.35,0.));
#434=CARTESIAN_POINT('Origin',(206.8192035,333.978104335008,0.));
#435=CARTESIAN_POINT('',(230.206551,199.703359,0.));
#436=CARTESIAN_POINT('',(183.431856,199.703359,0.));
#437=CARTESIAN_POINT('Origin',(206.8192035,333.978104335008,0.));
#438=CARTESIAN_POINT('',(183.431856,199.703359,6.));
#439=CARTESIAN_POINT('',(183.431856,199.703359,0.));
#440=CARTESIAN_POINT('',(230.206551,199.703359,6.));
#441=CARTESIAN_POINT('Origin',(206.8192035,333.978104335008,6.));
#442=CARTESIAN_POINT('',(230.206551,199.703359,0.));
#443=CARTESIAN_POINT('Origin',(233.638405261733,179.999998932892,0.));
#444=CARTESIAN_POINT('',(250.169867,168.74341,0.));
#445=CARTESIAN_POINT('Origin',(233.638405261733,179.999998932892,0.));
#446=CARTESIAN_POINT('',(250.169867,168.74341,6.));
#447=CARTESIAN_POINT('Origin',(233.638405261733,179.999998932892,6.));
#448=CARTESIAN_POINT('',(250.169867,168.74341,0.));
#449=CARTESIAN_POINT('Origin',(223.350664,129.356652,0.));
#450=CARTESIAN_POINT('',(223.350664,129.356652,0.));
#451=CARTESIAN_POINT('',(223.350664,129.356652,0.));
#452=CARTESIAN_POINT('',(223.350664,129.356652,6.));
#453=CARTESIAN_POINT('',(223.350664,129.356652,6.));
#454=CARTESIAN_POINT('',(223.350664,129.356652,0.));
#455=CARTESIAN_POINT('Origin',(206.8192035,140.613249585444,0.));
#456=CARTESIAN_POINT('',(190.287743,129.356652,0.));
#457=CARTESIAN_POINT('Origin',(206.8192035,140.613249585444,0.));
#458=CARTESIAN_POINT('',(190.287743,129.356652,6.));
#459=CARTESIAN_POINT('Origin',(206.8192035,140.613249585444,6.));
#460=CARTESIAN_POINT('',(190.287743,129.356652,0.));
#461=CARTESIAN_POINT('Origin',(163.46854,168.74341,0.));
#462=CARTESIAN_POINT('',(163.46854,168.74341,0.));
#463=CARTESIAN_POINT('',(163.46854,168.74341,0.));
#464=CARTESIAN_POINT('',(163.46854,168.74341,6.));
#465=CARTESIAN_POINT('',(163.46854,168.74341,6.));
#466=CARTESIAN_POINT('',(163.46854,168.74341,0.));
#467=CARTESIAN_POINT('Origin',(180.000001738268,179.999998932891,0.));
#468=CARTESIAN_POINT('Origin',(180.000001738268,179.999998932891,0.));
#469=CARTESIAN_POINT('Origin',(180.000001738268,179.999998932891,6.));
#470=CARTESIAN_POINT('Origin',(206.8192035,160.306622335971,6.));
#471=CARTESIAN_POINT('Origin',(206.8192035,160.306622335971,0.));
#472=UNCERTAINTY_MEASURE_WITH_UNIT(LENGTH_MEASURE(0.01),#476,
'DISTANCE_ACCURACY_VALUE',
'Maximum model space distance between geometric entities at asserted c
onnectivities');
#473=UNCERTAINTY_MEASURE_WITH_UNIT(LENGTH_MEASURE(0.01),#476,
'DISTANCE_ACCURACY_VALUE',
'Maximum model space distance between geometric entities at asserted c
onnectivities');
#474=(
GEOMETRIC_REPRESENTATION_CONTEXT(3)
GLOBAL_UNCERTAINTY_ASSIGNED_CONTEXT((#472))
GLOBAL_UNIT_ASSIGNED_CONTEXT((#476,#478,#479))
REPRESENTATION_CONTEXT('','3D')
);
#475=(
GEOMETRIC_REPRESENTATION_CONTEXT(3)
GLOBAL_UNCERTAINTY_ASSIGNED_CONTEXT((#473))
GLOBAL_UNIT_ASSIGNED_CONTEXT((#476,#478,#479))
REPRESENTATION_CONTEXT('','3D')
);
#476=(
LENGTH_UNIT()
NAMED_UNIT(*)
SI_UNIT(.MILLI.,.METRE.)
);
#477=(
LENGTH_UNIT()
NAMED_UNIT(*)
SI_UNIT($,.METRE.)
);
#478=(
NAMED_UNIT(*)
PLANE_ANGLE_UNIT()
SI_UNIT($,.RADIAN.)
);
#479=(
NAMED_UNIT(*)
SI_UNIT($,.STERADIAN.)
SOLID_ANGLE_UNIT()
);
#480=SHAPE_DEFINITION_REPRESENTATION(#481,#482);
#481=PRODUCT_DEFINITION_SHAPE('',$,#484);
#482=SHAPE_REPRESENTATION('',(#284),#474);
#483=PRODUCT_DEFINITION_CONTEXT('part definition',#488,'design');
#484=PRODUCT_DEFINITION('(Non enregistr\X\E9)','(Non enregistr\X\E9)',#485,
#483);
#485=PRODUCT_DEFINITION_FORMATION('',$,#490);
#486=PRODUCT_RELATED_PRODUCT_CATEGORY('(Non enregistr\X\E9)',
'(Non enregistr\X\E9)',(#490));
#487=APPLICATION_PROTOCOL_DEFINITION('international standard',
'automotive_design',2009,#488);
#488=APPLICATION_CONTEXT(
'Core Data for Automotive Mechanical Design Process');
#489=PRODUCT_CONTEXT('part definition',#488,'mechanical');
#490=PRODUCT('(Non enregistr\X\E9)','(Non enregistr\X\E9)',$,(#489));
#491=PRESENTATION_STYLE_ASSIGNMENT((#492));
#492=SURFACE_STYLE_USAGE(.BOTH.,#493);
#493=SURFACE_SIDE_STYLE('',(#494));
#494=SURFACE_STYLE_FILL_AREA(#495);
#495=FILL_AREA_STYLE('Acier - Satin\X\E9',(#496));
#496=FILL_AREA_STYLE_COLOUR('Acier - Satin\X\E9',#497);
#497=COLOUR_RGB('Acier - Satin\X\E9',0.627450980392157,0.627450980392157,
0.627450980392157);
ENDSEC;
END-ISO-10303-21;
