ISO-10303-21;
HEADER;
FILE_DESCRIPTION (( 'STEP AP214' ),
    '1' );
FILE_NAME ('ecrou.STEP',
    '2023-04-13T08:02:10',
    ( '' ),
    ( '' ),
    'SwSTEP 2.0',
    'SolidWorks 2022',
    '' );
FILE_SCHEMA (( 'AUTOMOTIVE_DESIGN' ));
ENDSEC;

DATA;
#1 = FACE_BOUND ( 'NONE', #246, .T. ) ;
#2 = CIRCLE ( 'NONE', #226, 1.750000000000001554 ) ;
#3 = AXIS2_PLACEMENT_3D ( 'NONE', #322, #287, #255 ) ;
#4 = ORIENTED_EDGE ( 'NONE', *, *, #147, .F. ) ;
#5 = VERTEX_POINT ( 'NONE', #114 ) ;
#6 = LINE ( 'NONE', #342, #219 ) ;
#7 = VERTEX_POINT ( 'NONE', #35 ) ;
#8 = FILL_AREA_STYLE_COLOUR ( '', #365 ) ;
#9 = EDGE_LOOP ( 'NONE', ( #344, #361 ) ) ;
#10 = PRESENTATION_STYLE_ASSIGNMENT (( #275 ) ) ;
#11 = EDGE_CURVE ( 'NONE', #7, #277, #38, .T. ) ;
#12 = ORIENTED_EDGE ( 'NONE', *, *, #376, .F. ) ;
#13 = FILL_AREA_STYLE ('',( #8 ) ) ;
#14 = ORIENTED_EDGE ( 'NONE', *, *, #80, .F. ) ;
#15 = CARTESIAN_POINT ( 'NONE',  ( 2.000000000000000000, 2.449293598294706414E-16, 4.049999999999999822 ) ) ;
#16 = UNCERTAINTY_MEASURE_WITH_UNIT (LENGTH_MEASURE( 1.000000000000000082E-05 ), #31, 'distance_accuracy_value', 'NONE');
#17 = ADVANCED_FACE ( 'NONE', ( #262, #1 ), #112, .T. ) ;
#18 = EDGE_CURVE ( 'NONE', #7, #59, #170, .T. ) ;
#19 = ORIENTED_EDGE ( 'NONE', *, *, #83, .F. ) ;
#20 = AXIS2_PLACEMENT_3D ( 'NONE', #313, #375, #155 ) ;
#21 = AXIS2_PLACEMENT_3D ( 'NONE', #50, #82, #324 ) ;
#22 = DIRECTION ( 'NONE',  ( -0.000000000000000000, -0.000000000000000000, 1.000000000000000000 ) ) ;
#23 = FACE_BOUND ( 'NONE', #9, .T. ) ;
#24 = CYLINDRICAL_SURFACE ( 'NONE', #26, 2.000000000000000000 ) ;
#25 = DIRECTION ( 'NONE',  ( -0.000000000000000000, -0.000000000000000000, -1.000000000000000000 ) ) ;
#26 = AXIS2_PLACEMENT_3D ( 'NONE', #81, #79, #194 ) ;
#27 = LINE ( 'NONE', #351, #284 ) ;
#28 = APPLICATION_PROTOCOL_DEFINITION ( 'draft international standard', 'automotive_design', 1998, #57 ) ;
#29 = ORIENTED_EDGE ( 'NONE', *, *, #48, .F. ) ;
#30 = EDGE_CURVE ( 'NONE', #384, #220, #173, .T. ) ;
#31 =( LENGTH_UNIT ( ) NAMED_UNIT ( * ) SI_UNIT ( .MILLI., .METRE. ) );
#32 = AXIS2_PLACEMENT_3D ( 'NONE', #211, #378, #72 ) ;
#33 = DIRECTION ( 'NONE',  ( 1.000000000000000000, 0.000000000000000000, 0.000000000000000000 ) ) ;
#34 = SURFACE_STYLE_USAGE ( .BOTH. , #359 ) ;
#35 = CARTESIAN_POINT ( 'NONE',  ( -1.750000000000001554, 0.000000000000000000, 4.299999999999999822 ) ) ;
#36 = DIRECTION ( 'NONE',  ( -0.7071067811865439090, 0.000000000000000000, -0.7071067811865512365 ) ) ;
#37 = DIRECTION ( 'NONE',  ( 0.000000000000000000, 0.000000000000000000, 1.000000000000000000 ) ) ;
#38 = CIRCLE ( 'NONE', #242, 1.750000000000001554 ) ;
#39 = ORIENTED_EDGE ( 'NONE', *, *, #353, .T. ) ;
#40 = DIRECTION ( 'NONE',  ( 1.000000000000000000, 0.000000000000000000, 0.000000000000000000 ) ) ;
#41 = EDGE_LOOP ( 'NONE', ( #281, #14, #270, #4 ) ) ;
#42 = CARTESIAN_POINT ( 'NONE',  ( 0.000000000000000000, 0.000000000000000000, 4.299999999999999822 ) ) ;
#43 = ORIENTED_EDGE ( 'NONE', *, *, #203, .F. ) ;
#44 = CARTESIAN_POINT ( 'NONE',  ( 1.750000000000001554, 2.143131898507870023E-16, 4.299999999999999822 ) ) ;
#45 = EDGE_LOOP ( 'NONE', ( #43, #49, #176, #208 ) ) ;
#46 =( LENGTH_UNIT ( ) NAMED_UNIT ( * ) SI_UNIT ( .MILLI., .METRE. ) );
#47 = EDGE_LOOP ( 'NONE', ( #293, #96, #149, #316 ) ) ;
#48 = EDGE_CURVE ( 'NONE', #5, #217, #235, .T. ) ;
#49 = ORIENTED_EDGE ( 'NONE', *, *, #131, .T. ) ;
#50 = CARTESIAN_POINT ( 'NONE',  ( 0.000000000000000000, 0.000000000000000000, 4.299999999999999822 ) ) ;
#51 = CARTESIAN_POINT ( 'NONE',  ( 0.000000000000000000, 0.000000000000000000, 1.734723475976807094E-15 ) ) ;
#52 = ADVANCED_FACE ( 'NONE', ( #335 ), #65, .F. ) ;
#53 = CARTESIAN_POINT ( 'NONE',  ( 0.000000000000000000, 0.000000000000000000, 1.734723475976807094E-15 ) ) ;
#54 = FACE_OUTER_BOUND ( 'NONE', #122, .T. ) ;
#55 = DIRECTION ( 'NONE',  ( -0.000000000000000000, -0.000000000000000000, 1.000000000000000000 ) ) ;
#56 = CARTESIAN_POINT ( 'NONE',  ( 0.000000000000000000, 0.000000000000000000, 4.299999999999999822 ) ) ;
#57 = APPLICATION_CONTEXT ( 'automotive_design' ) ;
#58 = ADVANCED_FACE ( 'NONE', ( #145 ), #389, .T. ) ;
#59 = VERTEX_POINT ( 'NONE', #364 ) ;
#60 =( NAMED_UNIT ( * ) SI_UNIT ( $, .STERADIAN. ) SOLID_ANGLE_UNIT ( ) );
#61 = LINE ( 'NONE', #265, #261 ) ;
#62 = PRODUCT_CONTEXT ( 'NONE', #310, 'mechanical' ) ;
#63 = DIRECTION ( 'NONE',  ( -0.000000000000000000, -0.000000000000000000, 1.000000000000000000 ) ) ;
#64 = PRESENTATION_STYLE_ASSIGNMENT (( #34 ) ) ;
#65 = CYLINDRICAL_SURFACE ( 'NONE', #77, 1.024999999999987255 ) ;
#66 = ORIENTED_EDGE ( 'NONE', *, *, #306, .T. ) ;
#67 = AXIS2_PLACEMENT_3D ( 'NONE', #227, #196, #323 ) ;
#68 = ORIENTED_EDGE ( 'NONE', *, *, #248, .F. ) ;
#69 = DIRECTION ( 'NONE',  ( -0.000000000000000000, -0.000000000000000000, -1.000000000000000000 ) ) ;
#70 = DIRECTION ( 'NONE',  ( -1.000000000000000000, 0.000000000000000000, 0.000000000000000000 ) ) ;
#71 = VERTEX_POINT ( 'NONE', #393 ) ;
#72 = DIRECTION ( 'NONE',  ( 1.000000000000000000, 0.000000000000000000, 0.000000000000000000 ) ) ;
#73 = ORIENTED_EDGE ( 'NONE', *, *, #302, .F. ) ;
#74 = VERTEX_POINT ( 'NONE', #362 ) ;
#75 = CARTESIAN_POINT ( 'NONE',  ( -1.024999999999986811, 1.255262969126021069E-16, 1.734723475976807094E-15 ) ) ;
#76 = CARTESIAN_POINT ( 'NONE',  ( 0.000000000000000000, 0.000000000000000000, 4.300000000000001599 ) ) ;
#77 = AXIS2_PLACEMENT_3D ( 'NONE', #295, #63, #33 ) ;
#78 = CIRCLE ( 'NONE', #146, 1.024999999999987699 ) ;
#79 = DIRECTION ( 'NONE',  ( -0.000000000000000000, -0.000000000000000000, -1.000000000000000000 ) ) ;
#80 = EDGE_CURVE ( 'NONE', #98, #71, #94, .T. ) ;
#81 = CARTESIAN_POINT ( 'NONE',  ( 0.000000000000000000, 0.000000000000000000, 4.299999999999999822 ) ) ;
#82 = DIRECTION ( 'NONE',  ( 0.000000000000000000, 0.000000000000000000, -1.000000000000000000 ) ) ;
#83 = EDGE_CURVE ( 'NONE', #98, #186, #61, .T. ) ;
#84 = CIRCLE ( 'NONE', #230, 3.500000000000000000 ) ;
#85 = PRODUCT_RELATED_PRODUCT_CATEGORY ( 'part', '', ( #197 ) ) ;
#86 = CARTESIAN_POINT ( 'NONE',  ( 0.000000000000000000, 0.000000000000000000, 4.049999999999999822 ) ) ;
#87 = CARTESIAN_POINT ( 'NONE',  ( 0.000000000000000000, 0.000000000000000000, 1.050000000000001821 ) ) ;
#88 = DIRECTION ( 'NONE',  ( 0.000000000000000000, 0.000000000000000000, 1.000000000000000000 ) ) ;
#89 = CIRCLE ( 'NONE', #121, 1.024999999999987699 ) ;
#90 = SHAPE_DEFINITION_REPRESENTATION ( #354, #370 ) ;
#91 = ORIENTED_EDGE ( 'NONE', *, *, #314, .F. ) ;
#92 = DIRECTION ( 'NONE',  ( 1.000000000000000000, 0.000000000000000000, 0.000000000000000000 ) ) ;
#93 = DIRECTION ( 'NONE',  ( -1.000000000000000000, 0.000000000000000000, 0.000000000000000000 ) ) ;
#94 = CIRCLE ( 'NONE', #360, 2.000000000000000000 ) ;
#95 = ADVANCED_FACE ( 'NONE', ( #143, #238 ), #367, .T. ) ;
#96 = ORIENTED_EDGE ( 'NONE', *, *, #314, .T. ) ;
#97 = CARTESIAN_POINT ( 'NONE',  ( 0.000000000000000000, 0.000000000000000000, 1.050000000000001821 ) ) ;
#98 = VERTEX_POINT ( 'NONE', #273 ) ;
#99 = CARTESIAN_POINT ( 'NONE',  ( 0.000000000000000000, 0.000000000000000000, 0.8000000000000000444 ) ) ;
#100 = EDGE_CURVE ( 'NONE', #217, #233, #348, .T. ) ;
#101 = ORIENTED_EDGE ( 'NONE', *, *, #272, .T. ) ;
#102 = AXIS2_PLACEMENT_3D ( 'NONE', #119, #355, #129 ) ;
#103 = ORIENTED_EDGE ( 'NONE', *, *, #234, .T. ) ;
#104 = CARTESIAN_POINT ( 'NONE',  ( -2.000000000000000000, 0.000000000000000000, 4.299999999999999822 ) ) ;
#105 = CARTESIAN_POINT ( 'NONE',  ( 1.750000000000001554, 2.296212748401287972E-16, 4.299999999999999822 ) ) ;
#106 = DIRECTION ( 'NONE',  ( 1.000000000000000000, 0.000000000000000000, 0.000000000000000000 ) ) ;
#107 = AXIS2_PLACEMENT_3D ( 'NONE', #232, #201, #206 ) ;
#108 = DIRECTION ( 'NONE',  ( 0.000000000000000000, 0.000000000000000000, 1.000000000000000000 ) ) ;
#109 = CARTESIAN_POINT ( 'NONE',  ( 0.000000000000000000, 0.000000000000000000, 4.300000000000001599 ) ) ;
#110 = VECTOR ( 'NONE', #225, 1000.000000000000000 ) ;
#111 = CARTESIAN_POINT ( 'NONE',  ( 0.000000000000000000, 0.000000000000000000, 1.050000000000001821 ) ) ;
#112 = PLANE ( 'NONE',  #251 ) ;
#113 = EDGE_LOOP ( 'NONE', ( #68, #240, #39, #12 ) ) ;
#114 = CARTESIAN_POINT ( 'NONE',  ( 3.500000000000000000, 4.286263797015736595E-16, 0.8000000000000000444 ) ) ;
#115 = DIRECTION ( 'NONE',  ( 0.000000000000000000, 0.000000000000000000, 1.000000000000000000 ) ) ;
#116 = VERTEX_POINT ( 'NONE', #150 ) ;
#117 = SURFACE_SIDE_STYLE ('',( #216 ) ) ;
#118 = ORIENTED_EDGE ( 'NONE', *, *, #48, .T. ) ;
#119 = CARTESIAN_POINT ( 'NONE',  ( 0.000000000000000000, 0.000000000000000000, 4.299999999999999822 ) ) ;
#120 = AXIS2_PLACEMENT_3D ( 'NONE', #111, #175, #140 ) ;
#121 = AXIS2_PLACEMENT_3D ( 'NONE', #76, #228, #191 ) ;
#122 = EDGE_LOOP ( 'NONE', ( #249, #158, #268, #154 ) ) ;
#123 = CARTESIAN_POINT ( 'NONE',  ( 0.000000000000000000, 0.000000000000000000, 0.8000000000000000444 ) ) ;
#124 = UNCERTAINTY_MEASURE_WITH_UNIT (LENGTH_MEASURE( 1.000000000000000082E-05 ), #46, 'distance_accuracy_value', 'NONE');
#125 = EDGE_LOOP ( 'NONE', ( #350, #73, #333, #66 ) ) ;
#126 = CYLINDRICAL_SURFACE ( 'NONE', #166, 1.024999999999987255 ) ;
#127 = AXIS2_PLACEMENT_3D ( 'NONE', #53, #385, #159 ) ;
#128 = ORIENTED_EDGE ( 'NONE', *, *, #223, .T. ) ;
#129 = DIRECTION ( 'NONE',  ( -1.000000000000000000, 0.000000000000000000, 0.000000000000000000 ) ) ;
#130 = FACE_OUTER_BOUND ( 'NONE', #347, .T. ) ;
#131 = EDGE_CURVE ( 'NONE', #277, #210, #278, .T. ) ;
#132 = CARTESIAN_POINT ( 'NONE',  ( 1.024999999999986811, 0.000000000000000000, 1.734723475976807094E-15 ) ) ;
#133 = VECTOR ( 'NONE', #308, 1000.000000000000114 ) ;
#134 = CARTESIAN_POINT ( 'NONE',  ( 0.000000000000000000, 0.000000000000000000, 0.8000000000000000444 ) ) ;
#135 = DIRECTION ( 'NONE',  ( -1.000000000000000000, 0.000000000000000000, 0.000000000000000000 ) ) ;
#136 = CARTESIAN_POINT ( 'NONE',  ( -1.750000000000001554, 0.000000000000000000, 4.299999999999999822 ) ) ;
#137 = PRESENTATION_LAYER_ASSIGNMENT (  '', '', ( #237 ) ) ;
#138 = APPLICATION_PROTOCOL_DEFINITION ( 'draft international standard', 'automotive_design', 1998, #310 ) ;
#139 = VECTOR ( 'NONE', #222, 1000.000000000000000 ) ;
#140 = DIRECTION ( 'NONE',  ( -1.000000000000000000, 0.000000000000000000, 0.000000000000000000 ) ) ;
#141 = PLANE ( 'NONE',  #107 ) ;
#142 = EDGE_LOOP ( 'NONE', ( #336, #174 ) ) ;
#143 = FACE_BOUND ( 'NONE', #369, .T. ) ;
#144 = VECTOR ( 'NONE', #394, 1000.000000000000114 ) ;
#145 = FACE_OUTER_BOUND ( 'NONE', #41, .T. ) ;
#146 = AXIS2_PLACEMENT_3D ( 'NONE', #109, #317, #358 ) ;
#147 = EDGE_CURVE ( 'NONE', #74, #186, #198, .T. ) ;
#148 = EDGE_CURVE ( 'NONE', #186, #74, #331, .T. ) ;
#149 = ORIENTED_EDGE ( 'NONE', *, *, #190, .T. ) ;
#150 = CARTESIAN_POINT ( 'NONE',  ( 1.024999999999987699, 0.000000000000000000, 4.300000000000001599 ) ) ;
#151 = CYLINDRICAL_SURFACE ( 'NONE', #102, 2.000000000000000000 ) ;
#152 = ORIENTED_EDGE ( 'NONE', *, *, #148, .F. ) ;
#153 = CARTESIAN_POINT ( 'NONE',  ( 3.500000000000000000, 4.286263797015736595E-16, 0.000000000000000000 ) ) ;
#154 = ORIENTED_EDGE ( 'NONE', *, *, #285, .F. ) ;
#155 = DIRECTION ( 'NONE',  ( 1.000000000000000000, 0.000000000000000000, 0.000000000000000000 ) ) ;
#156 = VERTEX_POINT ( 'NONE', #185 ) ;
#157 = CARTESIAN_POINT ( 'NONE',  ( -1.024999999999987699, 1.255262969126021809E-16, 4.300000000000001599 ) ) ;
#158 = ORIENTED_EDGE ( 'NONE', *, *, #11, .F. ) ;
#159 = DIRECTION ( 'NONE',  ( 1.000000000000000000, 0.000000000000000000, 0.000000000000000000 ) ) ;
#160 = AXIS2_PLACEMENT_3D ( 'NONE', #86, #356, #383 ) ;
#161 = ADVANCED_FACE ( 'NONE', ( #309 ), #312, .T. ) ;
#162 = PRESENTATION_LAYER_ASSIGNMENT (  '', '', ( #276 ) ) ;
#163 = CYLINDRICAL_SURFACE ( 'NONE', #3, 3.500000000000000000 ) ;
#164 = CARTESIAN_POINT ( 'NONE',  ( 2.000000000000000000, 2.449293598294706414E-16, 4.299999999999999822 ) ) ;
#165 = CARTESIAN_POINT ( 'NONE',  ( 0.000000000000000000, 0.000000000000000000, 0.000000000000000000 ) ) ;
#166 = AXIS2_PLACEMENT_3D ( 'NONE', #42, #305, #40 ) ;
#167 = VECTOR ( 'NONE', #25, 1000.000000000000000 ) ;
#168 = PRODUCT_DEFINITION_FORMATION_WITH_SPECIFIED_SOURCE ( 'ANY', '', #197, .NOT_KNOWN. ) ;
#169 = CARTESIAN_POINT ( 'NONE',  ( 0.000000000000000000, 0.000000000000000000, 0.8000000000000000444 ) ) ;
#170 = LINE ( 'NONE', #136, #144 ) ;
#171 = DIRECTION ( 'NONE',  ( -0.000000000000000000, -0.000000000000000000, 1.000000000000000000 ) ) ;
#172 = FILL_AREA_STYLE_COLOUR ( '', #341 ) ;
#173 = LINE ( 'NONE', #392, #192 ) ;
#174 = ORIENTED_EDGE ( 'NONE', *, *, #337, .T. ) ;
#175 = DIRECTION ( 'NONE',  ( 0.000000000000000000, 0.000000000000000000, -1.000000000000000000 ) ) ;
#176 = ORIENTED_EDGE ( 'NONE', *, *, #257, .F. ) ;
#177 = CIRCLE ( 'NONE', #67, 2.000000000000000000 ) ;
#178 = AXIS2_PLACEMENT_3D ( 'NONE', #51, #55, #352 ) ;
#179 = ORIENTED_EDGE ( 'NONE', *, *, #234, .F. ) ;
#180 = FACE_OUTER_BOUND ( 'NONE', #239, .T. ) ;
#181 = ORIENTED_EDGE ( 'NONE', *, *, #147, .T. ) ;
#182 = CARTESIAN_POINT ( 'NONE',  ( 0.000000000000000000, 0.000000000000000000, 4.299999999999999822 ) ) ;
#183 = ORIENTED_EDGE ( 'NONE', *, *, #306, .F. ) ;
#184 = ADVANCED_FACE ( 'NONE', ( #380 ), #244, .T. ) ;
#185 = CARTESIAN_POINT ( 'NONE',  ( -3.500000000000000000, 0.000000000000000000, 0.8000000000000000444 ) ) ;
#186 = VERTEX_POINT ( 'NONE', #214 ) ;
#187 = DIRECTION ( 'NONE',  ( 1.000000000000000000, 0.000000000000000000, -0.000000000000000000 ) ) ;
#188 = EDGE_LOOP ( 'NONE', ( #379, #307 ) ) ;
#189 = LINE ( 'NONE', #104, #139 ) ;
#190 = EDGE_CURVE ( 'NONE', #71, #98, #283, .T. ) ;
#191 = DIRECTION ( 'NONE',  ( 1.000000000000000000, 0.000000000000000000, 0.000000000000000000 ) ) ;
#192 = VECTOR ( 'NONE', #171, 1000.000000000000000 ) ;
#193 = AXIS2_PLACEMENT_3D ( 'NONE', #263, #363, #300 ) ;
#194 = DIRECTION ( 'NONE',  ( -1.000000000000000000, 0.000000000000000000, 0.000000000000000000 ) ) ;
#195 = CARTESIAN_POINT ( 'NONE',  ( 0.000000000000000000, 0.000000000000000000, 4.299999999999999822 ) ) ;
#196 = DIRECTION ( 'NONE',  ( 0.000000000000000000, 0.000000000000000000, -1.000000000000000000 ) ) ;
#197 = PRODUCT ( 'ecrou', 'ecrou', '', ( #62 ) ) ;
#198 = CIRCLE ( 'NONE', #256, 2.249999999999999556 ) ;
#199 = AXIS2_PLACEMENT_3D ( 'NONE', #134, #108, #390 ) ;
#200 = ORIENTED_EDGE ( 'NONE', *, *, #223, .F. ) ;
#201 = DIRECTION ( 'NONE',  ( 0.000000000000000000, 0.000000000000000000, 1.000000000000000000 ) ) ;
#202 = CARTESIAN_POINT ( 'NONE',  ( 0.000000000000000000, 0.000000000000000000, 4.299999999999999822 ) ) ;
#203 = EDGE_CURVE ( 'NONE', #277, #7, #2, .T. ) ;
#204 = ORIENTED_EDGE ( 'NONE', *, *, #337, .F. ) ;
#205 = AXIS2_PLACEMENT_3D ( 'NONE', #301, #37, #187 ) ;
#206 = DIRECTION ( 'NONE',  ( 1.000000000000000000, 0.000000000000000000, -0.000000000000000000 ) ) ;
#207 = CIRCLE ( 'NONE', #231, 3.500000000000000000 ) ;
#208 = ORIENTED_EDGE ( 'NONE', *, *, #18, .F. ) ;
#209 =( NAMED_UNIT ( * ) PLANE_ANGLE_UNIT ( ) SI_UNIT ( $, .RADIAN. ) );
#210 = VERTEX_POINT ( 'NONE', #15 ) ;
#211 = CARTESIAN_POINT ( 'NONE',  ( 0.000000000000000000, 0.000000000000000000, 1.050000000000001821 ) ) ;
#212 = ORIENTED_EDGE ( 'NONE', *, *, #297, .T. ) ;
#213 = DIRECTION ( 'NONE',  ( 1.000000000000000000, 0.000000000000000000, 0.000000000000000000 ) ) ;
#214 = CARTESIAN_POINT ( 'NONE',  ( -2.249999999999999556, 0.000000000000000000, 0.8000000000000000444 ) ) ;
#215 = ORIENTED_EDGE ( 'NONE', *, *, #353, .F. ) ;
#216 = SURFACE_STYLE_FILL_AREA ( #13 ) ;
#217 = VERTEX_POINT ( 'NONE', #153 ) ;
#218 = MANIFOLD_SOLID_BREP ( 'Chanfrein1', #372 ) ;
#219 = VECTOR ( 'NONE', #69, 1000.000000000000000 ) ;
#220 = VERTEX_POINT ( 'NONE', #157 ) ;
#221 = ADVANCED_FACE ( 'NONE', ( #271 ), #126, .F. ) ;
#222 = DIRECTION ( 'NONE',  ( -0.000000000000000000, -0.000000000000000000, -1.000000000000000000 ) ) ;
#223 = EDGE_CURVE ( 'NONE', #156, #233, #6, .T. ) ;
#224 = DIRECTION ( 'NONE',  ( 0.000000000000000000, 0.000000000000000000, -1.000000000000000000 ) ) ;
#225 = DIRECTION ( 'NONE',  ( 0.7071067811865439090, 8.659560562354888485E-17, -0.7071067811865512365 ) ) ;
#226 = AXIS2_PLACEMENT_3D ( 'NONE', #182, #280, #213 ) ;
#227 = CARTESIAN_POINT ( 'NONE',  ( 0.000000000000000000, 0.000000000000000000, 4.049999999999999822 ) ) ;
#228 = DIRECTION ( 'NONE',  ( -0.000000000000000000, -0.000000000000000000, 1.000000000000000000 ) ) ;
#229 = ADVANCED_FACE ( 'NONE', ( #180 ), #151, .T. ) ;
#230 = AXIS2_PLACEMENT_3D ( 'NONE', #165, #387, #106 ) ;
#231 = AXIS2_PLACEMENT_3D ( 'NONE', #169, #318, #290 ) ;
#232 = CARTESIAN_POINT ( 'NONE',  ( 0.000000000000000000, 0.000000000000000000, 0.000000000000000000 ) ) ;
#233 = VERTEX_POINT ( 'NONE', #388 ) ;
#234 = EDGE_CURVE ( 'NONE', #233, #217, #84, .T. ) ;
#235 = LINE ( 'NONE', #298, #296 ) ;
#236 = DIRECTION ( 'NONE',  ( -0.000000000000000000, -0.000000000000000000, -1.000000000000000000 ) ) ;
#237 = STYLED_ITEM ( 'NONE', ( #10 ), #218 ) ;
#238 = FACE_OUTER_BOUND ( 'NONE', #142, .T. ) ;
#239 = EDGE_LOOP ( 'NONE', ( #91, #315, #212, #339 ) ) ;
#240 = ORIENTED_EDGE ( 'NONE', *, *, #30, .T. ) ;
#241 = DIRECTION ( 'NONE',  ( 0.000000000000000000, 0.000000000000000000, -1.000000000000000000 ) ) ;
#242 = AXIS2_PLACEMENT_3D ( 'NONE', #202, #88, #329 ) ;
#243 = CIRCLE ( 'NONE', #199, 3.500000000000000000 ) ;
#244 = CYLINDRICAL_SURFACE ( 'NONE', #325, 3.500000000000000000 ) ;
#245 = DIRECTION ( 'NONE',  ( -0.000000000000000000, -0.000000000000000000, -1.000000000000000000 ) ) ;
#246 = EDGE_LOOP ( 'NONE', ( #183, #215 ) ) ;
#247 =( NAMED_UNIT ( * ) PLANE_ANGLE_UNIT ( ) SI_UNIT ( $, .RADIAN. ) );
#248 = EDGE_CURVE ( 'NONE', #384, #274, #303, .T. ) ;
#249 = ORIENTED_EDGE ( 'NONE', *, *, #131, .F. ) ;
#250 = DIRECTION ( 'NONE',  ( 0.000000000000000000, 0.000000000000000000, 1.000000000000000000 ) ) ;
#251 = AXIS2_PLACEMENT_3D ( 'NONE', #56, #115, #328 ) ;
#252 = ORIENTED_EDGE ( 'NONE', *, *, #148, .T. ) ;
#253 = FACE_OUTER_BOUND ( 'NONE', #47, .T. ) ;
#254 = FACE_OUTER_BOUND ( 'NONE', #377, .T. ) ;
#255 = DIRECTION ( 'NONE',  ( -1.000000000000000000, 0.000000000000000000, 0.000000000000000000 ) ) ;
#256 = AXIS2_PLACEMENT_3D ( 'NONE', #123, #346, #345 ) ;
#257 = EDGE_CURVE ( 'NONE', #59, #210, #177, .T. ) ;
#258 = CARTESIAN_POINT ( 'NONE',  ( 2.000000000000000000, 2.449293598294706414E-16, 1.050000000000001821 ) ) ;
#259 = PRODUCT_DEFINITION ( 'UNKNOWN', '', #168, #269 ) ;
#260 = ORIENTED_EDGE ( 'NONE', *, *, #100, .F. ) ;
#261 = VECTOR ( 'NONE', #36, 1000.000000000000000 ) ;
#262 = FACE_OUTER_BOUND ( 'NONE', #188, .T. ) ;
#263 = CARTESIAN_POINT ( 'NONE',  ( 0.000000000000000000, 0.000000000000000000, 0.000000000000000000 ) ) ;
#264 = ORIENTED_EDGE ( 'NONE', *, *, #100, .T. ) ;
#265 = CARTESIAN_POINT ( 'NONE',  ( -2.000000000000000000, 0.000000000000000000, 1.050000000000001821 ) ) ;
#266 =( GEOMETRIC_REPRESENTATION_CONTEXT ( 3 ) GLOBAL_UNCERTAINTY_ASSIGNED_CONTEXT ( ( #124 ) ) GLOBAL_UNIT_ASSIGNED_CONTEXT ( ( #46, #247, #349 ) ) REPRESENTATION_CONTEXT ( 'NONE', 'WORKASPACE' ) );
#267 = CONICAL_SURFACE ( 'NONE', #21, 1.750000000000001554, 0.7853981633974447263 ) ;
#268 = ORIENTED_EDGE ( 'NONE', *, *, #18, .T. ) ;
#269 = PRODUCT_DEFINITION_CONTEXT ( 'detailed design', #57, 'design' ) ;
#270 = ORIENTED_EDGE ( 'NONE', *, *, #83, .T. ) ;
#271 = FACE_OUTER_BOUND ( 'NONE', #125, .T. ) ;
#272 = EDGE_CURVE ( 'NONE', #71, #74, #288, .T. ) ;
#273 = CARTESIAN_POINT ( 'NONE',  ( -2.000000000000000000, 0.000000000000000000, 1.050000000000001821 ) ) ;
#274 = VERTEX_POINT ( 'NONE', #132 ) ;
#275 = SURFACE_STYLE_USAGE ( .BOTH. , #117 ) ;
#276 = STYLED_ITEM ( 'NONE', ( #64 ), #370 ) ;
#277 = VERTEX_POINT ( 'NONE', #105 ) ;
#278 = LINE ( 'NONE', #44, #133 ) ;
#279 = ORIENTED_EDGE ( 'NONE', *, *, #368, .F. ) ;
#280 = DIRECTION ( 'NONE',  ( 0.000000000000000000, 0.000000000000000000, 1.000000000000000000 ) ) ;
#281 = ORIENTED_EDGE ( 'NONE', *, *, #272, .F. ) ;
#282 = LINE ( 'NONE', #164, #167 ) ;
#283 = CIRCLE ( 'NONE', #32, 2.000000000000000000 ) ;
#284 = VECTOR ( 'NONE', #22, 1000.000000000000000 ) ;
#285 = EDGE_CURVE ( 'NONE', #210, #59, #338, .T. ) ;
#286 = FACE_OUTER_BOUND ( 'NONE', #45, .T. ) ;
#287 = DIRECTION ( 'NONE',  ( -0.000000000000000000, -0.000000000000000000, -1.000000000000000000 ) ) ;
#288 = LINE ( 'NONE', #258, #110 ) ;
#289 = MECHANICAL_DESIGN_GEOMETRIC_PRESENTATION_REPRESENTATION (  '', ( #237 ), #266 ) ;
#290 = DIRECTION ( 'NONE',  ( 1.000000000000000000, 0.000000000000000000, 0.000000000000000000 ) ) ;
#291 = ADVANCED_FACE ( 'NONE', ( #253 ), #24, .T. ) ;
#292 = ADVANCED_FACE ( 'NONE', ( #54 ), #326, .T. ) ;
#293 = ORIENTED_EDGE ( 'NONE', *, *, #257, .T. ) ;
#294 = FILL_AREA_STYLE ('',( #172 ) ) ;
#295 = CARTESIAN_POINT ( 'NONE',  ( 0.000000000000000000, 0.000000000000000000, 4.299999999999999822 ) ) ;
#296 = VECTOR ( 'NONE', #236, 1000.000000000000000 ) ;
#297 = EDGE_CURVE ( 'NONE', #59, #98, #189, .T. ) ;
#298 = CARTESIAN_POINT ( 'NONE',  ( 3.500000000000000000, 4.286263797015736595E-16, 0.8000000000000000444 ) ) ;
#299 = DIRECTION ( 'NONE',  ( -0.000000000000000000, -0.000000000000000000, 1.000000000000000000 ) ) ;
#300 = DIRECTION ( 'NONE',  ( 1.000000000000000000, 0.000000000000000000, 0.000000000000000000 ) ) ;
#301 = CARTESIAN_POINT ( 'NONE',  ( 0.000000000000000000, 0.000000000000000000, 0.8000000000000000444 ) ) ;
#302 = EDGE_CURVE ( 'NONE', #274, #384, #373, .T. ) ;
#303 = CIRCLE ( 'NONE', #127, 1.024999999999986811 ) ;
#304 = ORIENTED_EDGE ( 'NONE', *, *, #190, .F. ) ;
#305 = DIRECTION ( 'NONE',  ( -0.000000000000000000, -0.000000000000000000, 1.000000000000000000 ) ) ;
#306 = EDGE_CURVE ( 'NONE', #116, #220, #89, .T. ) ;
#307 = ORIENTED_EDGE ( 'NONE', *, *, #203, .T. ) ;
#308 = DIRECTION ( 'NONE',  ( 0.7071067811865451302, 8.659560562354903276E-17, -0.7071067811865500152 ) ) ;
#309 = FACE_OUTER_BOUND ( 'NONE', #311, .T. ) ;
#310 = APPLICATION_CONTEXT ( 'automotive_design' ) ;
#311 = EDGE_LOOP ( 'NONE', ( #304, #101, #152, #19 ) ) ;
#312 = CONICAL_SURFACE ( 'NONE', #319, 2.000000000000000000, 0.7853981633974431720 ) ;
#313 = CARTESIAN_POINT ( 'NONE',  ( 0.000000000000000000, 0.000000000000000000, 0.8000000000000000444 ) ) ;
#314 = EDGE_CURVE ( 'NONE', #210, #71, #282, .T. ) ;
#315 = ORIENTED_EDGE ( 'NONE', *, *, #285, .T. ) ;
#316 = ORIENTED_EDGE ( 'NONE', *, *, #297, .F. ) ;
#317 = DIRECTION ( 'NONE',  ( -0.000000000000000000, -0.000000000000000000, 1.000000000000000000 ) ) ;
#318 = DIRECTION ( 'NONE',  ( 0.000000000000000000, 0.000000000000000000, 1.000000000000000000 ) ) ;
#319 = AXIS2_PLACEMENT_3D ( 'NONE', #97, #241, #93 ) ;
#320 = AXIS2_PLACEMENT_3D ( 'NONE', #195, #224, #135 ) ;
#321 = ADVANCED_FACE ( 'NONE', ( #130 ), #163, .T. ) ;
#322 = CARTESIAN_POINT ( 'NONE',  ( 0.000000000000000000, 0.000000000000000000, 0.8000000000000000444 ) ) ;
#323 = DIRECTION ( 'NONE',  ( 1.000000000000000000, 0.000000000000000000, 0.000000000000000000 ) ) ;
#324 = DIRECTION ( 'NONE',  ( -1.000000000000000000, 0.000000000000000000, 0.000000000000000000 ) ) ;
#325 = AXIS2_PLACEMENT_3D ( 'NONE', #99, #245, #70 ) ;
#326 = CONICAL_SURFACE ( 'NONE', #320, 1.750000000000001554, 0.7853981633974447263 ) ;
#327 =( GEOMETRIC_REPRESENTATION_CONTEXT ( 3 ) GLOBAL_UNCERTAINTY_ASSIGNED_CONTEXT ( ( #343 ) ) GLOBAL_UNIT_ASSIGNED_CONTEXT ( ( #391, #209, #60 ) ) REPRESENTATION_CONTEXT ( 'NONE', 'WORKASPACE' ) );
#328 = DIRECTION ( 'NONE',  ( 1.000000000000000000, 0.000000000000000000, -0.000000000000000000 ) ) ;
#329 = DIRECTION ( 'NONE',  ( 1.000000000000000000, 0.000000000000000000, 0.000000000000000000 ) ) ;
#330 = DIRECTION ( 'NONE',  ( 1.000000000000000000, 0.000000000000000000, 0.000000000000000000 ) ) ;
#331 = CIRCLE ( 'NONE', #20, 2.249999999999999556 ) ;
#332 =( NAMED_UNIT ( * ) SI_UNIT ( $, .STERADIAN. ) SOLID_ANGLE_UNIT ( ) );
#333 = ORIENTED_EDGE ( 'NONE', *, *, #376, .T. ) ;
#334 =( NAMED_UNIT ( * ) PLANE_ANGLE_UNIT ( ) SI_UNIT ( $, .RADIAN. ) );
#335 = FACE_OUTER_BOUND ( 'NONE', #113, .T. ) ;
#336 = ORIENTED_EDGE ( 'NONE', *, *, #368, .T. ) ;
#337 = EDGE_CURVE ( 'NONE', #5, #156, #243, .T. ) ;
#338 = CIRCLE ( 'NONE', #160, 2.000000000000000000 ) ;
#339 = ORIENTED_EDGE ( 'NONE', *, *, #80, .T. ) ;
#340 = MECHANICAL_DESIGN_GEOMETRIC_PRESENTATION_REPRESENTATION (  '', ( #276 ), #374 ) ;
#341 = COLOUR_RGB ( '',0.6470588235294117974, 0.6196078431372549211, 0.5882352941176470784 ) ;
#342 = CARTESIAN_POINT ( 'NONE',  ( -3.500000000000000000, 0.000000000000000000, 0.8000000000000000444 ) ) ;
#343 = UNCERTAINTY_MEASURE_WITH_UNIT (LENGTH_MEASURE( 1.000000000000000082E-05 ), #391, 'distance_accuracy_value', 'NONE');
#344 = ORIENTED_EDGE ( 'NONE', *, *, #302, .T. ) ;
#345 = DIRECTION ( 'NONE',  ( 1.000000000000000000, 0.000000000000000000, 0.000000000000000000 ) ) ;
#346 = DIRECTION ( 'NONE',  ( -0.000000000000000000, -0.000000000000000000, -1.000000000000000000 ) ) ;
#347 = EDGE_LOOP ( 'NONE', ( #29, #279, #128, #103 ) ) ;
#348 = CIRCLE ( 'NONE', #382, 3.500000000000000000 ) ;
#349 =( NAMED_UNIT ( * ) SI_UNIT ( $, .STERADIAN. ) SOLID_ANGLE_UNIT ( ) );
#350 = ORIENTED_EDGE ( 'NONE', *, *, #30, .F. ) ;
#351 = CARTESIAN_POINT ( 'NONE',  ( 1.024999999999987255, 0.000000000000000000, 4.299999999999999822 ) ) ;
#352 = DIRECTION ( 'NONE',  ( 1.000000000000000000, 0.000000000000000000, 0.000000000000000000 ) ) ;
#353 = EDGE_CURVE ( 'NONE', #220, #116, #78, .T. ) ;
#354 = PRODUCT_DEFINITION_SHAPE ( 'NONE', 'NONE',  #259 ) ;
#355 = DIRECTION ( 'NONE',  ( -0.000000000000000000, -0.000000000000000000, -1.000000000000000000 ) ) ;
#356 = DIRECTION ( 'NONE',  ( 0.000000000000000000, 0.000000000000000000, -1.000000000000000000 ) ) ;
#357 = ADVANCED_FACE ( 'NONE', ( #286 ), #267, .T. ) ;
#358 = DIRECTION ( 'NONE',  ( 1.000000000000000000, 0.000000000000000000, 0.000000000000000000 ) ) ;
#359 = SURFACE_SIDE_STYLE ('',( #366 ) ) ;
#360 = AXIS2_PLACEMENT_3D ( 'NONE', #87, #299, #330 ) ;
#361 = ORIENTED_EDGE ( 'NONE', *, *, #248, .T. ) ;
#362 = CARTESIAN_POINT ( 'NONE',  ( 2.249999999999999556, 2.755455298081543299E-16, 0.8000000000000000444 ) ) ;
#363 = DIRECTION ( 'NONE',  ( 0.000000000000000000, 0.000000000000000000, 1.000000000000000000 ) ) ;
#364 = CARTESIAN_POINT ( 'NONE',  ( -2.000000000000000000, 0.000000000000000000, 4.049999999999999822 ) ) ;
#365 = COLOUR_RGB ( '',0.6470588235294117974, 0.6196078431372549211, 0.5882352941176470784 ) ;
#366 = SURFACE_STYLE_FILL_AREA ( #294 ) ;
#367 = PLANE ( 'NONE',  #205 ) ;
#368 = EDGE_CURVE ( 'NONE', #156, #5, #207, .T. ) ;
#369 = EDGE_LOOP ( 'NONE', ( #252, #181 ) ) ;
#370 = ADVANCED_BREP_SHAPE_REPRESENTATION ( 'ecrou', ( #218, #193 ), #327 ) ;
#371 = CARTESIAN_POINT ( 'NONE',  ( 0.000000000000000000, 0.000000000000000000, 0.000000000000000000 ) ) ;
#372 = CLOSED_SHELL ( 'NONE', ( #161, #357, #52, #291, #184, #321, #95, #386, #229, #17, #221, #292, #58 ) ) ;
#373 = CIRCLE ( 'NONE', #178, 1.024999999999986811 ) ;
#374 =( GEOMETRIC_REPRESENTATION_CONTEXT ( 3 ) GLOBAL_UNCERTAINTY_ASSIGNED_CONTEXT ( ( #16 ) ) GLOBAL_UNIT_ASSIGNED_CONTEXT ( ( #31, #334, #332 ) ) REPRESENTATION_CONTEXT ( 'NONE', 'WORKASPACE' ) );
#375 = DIRECTION ( 'NONE',  ( -0.000000000000000000, -0.000000000000000000, -1.000000000000000000 ) ) ;
#376 = EDGE_CURVE ( 'NONE', #274, #116, #27, .T. ) ;
#377 = EDGE_LOOP ( 'NONE', ( #179, #260 ) ) ;
#378 = DIRECTION ( 'NONE',  ( -0.000000000000000000, -0.000000000000000000, 1.000000000000000000 ) ) ;
#379 = ORIENTED_EDGE ( 'NONE', *, *, #11, .T. ) ;
#380 = FACE_OUTER_BOUND ( 'NONE', #381, .T. ) ;
#381 = EDGE_LOOP ( 'NONE', ( #204, #118, #264, #200 ) ) ;
#382 = AXIS2_PLACEMENT_3D ( 'NONE', #371, #250, #92 ) ;
#383 = DIRECTION ( 'NONE',  ( 1.000000000000000000, 0.000000000000000000, 0.000000000000000000 ) ) ;
#384 = VERTEX_POINT ( 'NONE', #75 ) ;
#385 = DIRECTION ( 'NONE',  ( -0.000000000000000000, -0.000000000000000000, 1.000000000000000000 ) ) ;
#386 = ADVANCED_FACE ( 'NONE', ( #23, #254 ), #141, .F. ) ;
#387 = DIRECTION ( 'NONE',  ( 0.000000000000000000, 0.000000000000000000, 1.000000000000000000 ) ) ;
#388 = CARTESIAN_POINT ( 'NONE',  ( -3.500000000000000000, 0.000000000000000000, 0.000000000000000000 ) ) ;
#389 = CONICAL_SURFACE ( 'NONE', #120, 2.000000000000000000, 0.7853981633974431720 ) ;
#390 = DIRECTION ( 'NONE',  ( 1.000000000000000000, 0.000000000000000000, 0.000000000000000000 ) ) ;
#391 =( LENGTH_UNIT ( ) NAMED_UNIT ( * ) SI_UNIT ( .MILLI., .METRE. ) );
#392 = CARTESIAN_POINT ( 'NONE',  ( -1.024999999999987255, 1.255262969126021316E-16, 4.299999999999999822 ) ) ;
#393 = CARTESIAN_POINT ( 'NONE',  ( 2.000000000000000000, 2.449293598294706414E-16, 1.050000000000001821 ) ) ;
#394 = DIRECTION ( 'NONE',  ( -0.7071067811865451302, 0.000000000000000000, -0.7071067811865500152 ) ) ;
ENDSEC;
END-ISO-10303-21;
