ISO-10303-21;
HEADER;
FILE_DESCRIPTION (( 'STEP AP214' ),
    '1' );
FILE_NAME ('ART_Butee_10.STEP',
    '2023-04-12T09:12:25',
    ( '' ),
    ( '' ),
    'SwSTEP 2.0',
    'SolidWorks 2023',
    '' );
FILE_SCHEMA (( 'AUTOMOTIVE_DESIGN' ));
ENDSEC;

DATA;
#1 = CARTESIAN_POINT ( 'NONE',  ( -2.000000000000000000, 6.000000000000000000, -7.500000000000000000 ) ) ;
#2 = CIRCLE ( 'NONE', #324, 1.549999999999987166 ) ;
#3 = PRODUCT_DEFINITION ( 'UNKNOWN', '', #177, #318 ) ;
#4 = DIRECTION ( 'NONE',  ( 0.000000000000000000, 0.000000000000000000, -1.000000000000000000 ) ) ;
#5 =( NAMED_UNIT ( * ) SI_UNIT ( $, .STERADIAN. ) SOLID_ANGLE_UNIT ( ) );
#6 = CARTESIAN_POINT ( 'NONE',  ( 1.365481181049296074E-15, 3.000000000000000000, 5.549999999999987388 ) ) ;
#7 = CARTESIAN_POINT ( 'NONE',  ( 0.000000000000000000, 3.000000000000000000, 2.450000000000006839 ) ) ;
#8 = VECTOR ( 'NONE', #103, 1000.000000000000000 ) ;
#9 = DIRECTION ( 'NONE',  ( 1.000000000000000000, -0.000000000000000000, -0.000000000000000000 ) ) ;
#10 = DIRECTION ( 'NONE',  ( -1.208781439348414183E-16, 1.000000000000000000, 0.000000000000000000 ) ) ;
#11 = CARTESIAN_POINT ( 'NONE',  ( 0.000000000000000000, 0.000000000000000000, 7.500000000000000000 ) ) ;
#12 = VECTOR ( 'NONE', #174, 1000.000000000000000 ) ;
#13 = CARTESIAN_POINT ( 'NONE',  ( 6.965726697194148720, 8.971904569029626610E-16, -7.500000000000000000 ) ) ;
#14 = CARTESIAN_POINT ( 'NONE',  ( 0.000000000000000000, 0.000000000000000000, 7.500000000000000000 ) ) ;
#15 = DIRECTION ( 'NONE',  ( -1.000000000000000000, 0.000000000000000000, 0.000000000000000000 ) ) ;
#16 = ORIENTED_EDGE ( 'NONE', *, *, #60, .T. ) ;
#17 = ADVANCED_FACE ( 'NONE', ( #185 ), #255, .F. ) ;
#18 = FILL_AREA_STYLE_COLOUR ( '', #398 ) ;
#19 = ORIENTED_EDGE ( 'NONE', *, *, #130, .T. ) ;
#20 = PLANE ( 'NONE',  #168 ) ;
#21 = ORIENTED_EDGE ( 'NONE', *, *, #53, .T. ) ;
#22 = DIRECTION ( 'NONE',  ( 1.208781439348413936E-16, -1.000000000000000000, 0.000000000000000000 ) ) ;
#23 = ORIENTED_EDGE ( 'NONE', *, *, #38, .T. ) ;
#24 = CIRCLE ( 'NONE', #35, 1.549999999999987166 ) ;
#25 = ORIENTED_EDGE ( 'NONE', *, *, #114, .T. ) ;
#26 = VERTEX_POINT ( 'NONE', #123 ) ;
#27 = CARTESIAN_POINT ( 'NONE',  ( 6.965726697194148720, -1.499999999999999334, 7.500000000000000000 ) ) ;
#28 = CARTESIAN_POINT ( 'NONE',  ( 0.000000000000000000, 3.000000000000000000, 4.000000000000000000 ) ) ;
#29 = EDGE_CURVE ( 'NONE', #186, #47, #307, .T. ) ;
#30 = VERTEX_POINT ( 'NONE', #1 ) ;
#31 = AXIS2_PLACEMENT_3D ( 'NONE', #92, #375, #93 ) ;
#32 = CARTESIAN_POINT ( 'NONE',  ( -1.999999999999998668, -4.763257646344439600, 7.500000000000000000 ) ) ;
#33 = CARTESIAN_POINT ( 'NONE',  ( 1.365481181049296074E-15, 3.000000000000000000, 4.000000000000000000 ) ) ;
#34 = CARTESIAN_POINT ( 'NONE',  ( 0.000000000000000000, 6.000000000000000000, -7.500000000000000000 ) ) ;
#35 = AXIS2_PLACEMENT_3D ( 'NONE', #62, #278, #159 ) ;
#36 = CARTESIAN_POINT ( 'NONE',  ( 1.365481181049296074E-15, 3.000000000000000000, -4.000000000000000000 ) ) ;
#37 = CARTESIAN_POINT ( 'NONE',  ( -1.999999999999998668, -4.763257646344439600, -7.500000000000000000 ) ) ;
#38 = EDGE_CURVE ( 'NONE', #300, #388, #281, .T. ) ;
#39 = DIRECTION ( 'NONE',  ( 0.000000000000000000, 0.000000000000000000, -1.000000000000000000 ) ) ;
#40 = VECTOR ( 'NONE', #94, 1000.000000000000000 ) ;
#41 = DIRECTION ( 'NONE',  ( 1.000000000000000000, -0.000000000000000000, -0.000000000000000000 ) ) ;
#42 = ORIENTED_EDGE ( 'NONE', *, *, #237, .T. ) ;
#43 = CARTESIAN_POINT ( 'NONE',  ( -1.999999999999998668, -4.763257646344439600, -7.500000000000000000 ) ) ;
#44 = ORIENTED_EDGE ( 'NONE', *, *, #170, .F. ) ;
#45 = ADVANCED_FACE ( 'NONE', ( #313 ), #120, .F. ) ;
#46 = CYLINDRICAL_SURFACE ( 'NONE', #139, 1.549999999999993161 ) ;
#47 = VERTEX_POINT ( 'NONE', #224 ) ;
#48 = VECTOR ( 'NONE', #299, 1000.000000000000000 ) ;
#49 = CARTESIAN_POINT ( 'NONE',  ( 0.000000000000000000, 3.000000000000000000, -4.000000000000000000 ) ) ;
#50 = EDGE_LOOP ( 'NONE', ( #401, #332, #171, #23 ) ) ;
#51 = CARTESIAN_POINT ( 'NONE',  ( 0.000000000000000000, 6.000000000000000000, 7.500000000000000000 ) ) ;
#52 = VERTEX_POINT ( 'NONE', #251 ) ;
#53 = EDGE_CURVE ( 'NONE', #186, #54, #115, .T. ) ;
#54 = VERTEX_POINT ( 'NONE', #220 ) ;
#55 = CIRCLE ( 'NONE', #163, 1.549999999999999378 ) ;
#56 =( GEOMETRIC_REPRESENTATION_CONTEXT ( 3 ) GLOBAL_UNCERTAINTY_ASSIGNED_CONTEXT ( ( #340 ) ) GLOBAL_UNIT_ASSIGNED_CONTEXT ( ( #252, #249, #372 ) ) REPRESENTATION_CONTEXT ( 'NONE', 'WORKASPACE' ) );
#57 = ORIENTED_EDGE ( 'NONE', *, *, #348, .F. ) ;
#58 = DIRECTION ( 'NONE',  ( 0.9396926207859103153, 0.3420201433256632728, 0.000000000000000000 ) ) ;
#59 = ORIENTED_EDGE ( 'NONE', *, *, #29, .T. ) ;
#60 = EDGE_CURVE ( 'NONE', #61, #79, #342, .T. ) ;
#61 = VERTEX_POINT ( 'NONE', #311 ) ;
#62 = CARTESIAN_POINT ( 'NONE',  ( 1.365481181049296074E-15, 3.000000000000000000, -4.000000000000000000 ) ) ;
#63 = VECTOR ( 'NONE', #272, 1000.000000000000000 ) ;
#64 = ORIENTED_EDGE ( 'NONE', *, *, #69, .F. ) ;
#65 = FACE_BOUND ( 'NONE', #110, .T. ) ;
#66 = DIRECTION ( 'NONE',  ( -1.000000000000000000, -1.288006974583654401E-16, 0.000000000000000000 ) ) ;
#67 = VECTOR ( 'NONE', #200, 1000.000000000000000 ) ;
#68 = LINE ( 'NONE', #132, #133 ) ;
#69 = EDGE_CURVE ( 'NONE', #47, #219, #24, .T. ) ;
#70 = CARTESIAN_POINT ( 'NONE',  ( 0.000000000000000000, 6.000000000000000000, 7.500000000000000000 ) ) ;
#71 = FACE_OUTER_BOUND ( 'NONE', #210, .T. ) ;
#72 = AXIS2_PLACEMENT_3D ( 'NONE', #36, #165, #39 ) ;
#73 = AXIS2_PLACEMENT_3D ( 'NONE', #374, #369, #124 ) ;
#74 = DIRECTION ( 'NONE',  ( -1.000000000000000000, 0.000000000000000000, 0.000000000000000000 ) ) ;
#75 = VERTEX_POINT ( 'NONE', #283 ) ;
#76 = LINE ( 'NONE', #180, #63 ) ;
#77 = ORIENTED_EDGE ( 'NONE', *, *, #237, .F. ) ;
#78 = CARTESIAN_POINT ( 'NONE',  ( 0.000000000000000000, 6.000000000000000000, 7.500000000000000000 ) ) ;
#79 = VERTEX_POINT ( 'NONE', #6 ) ;
#80 = AXIS2_PLACEMENT_3D ( 'NONE', #258, #320, #10 ) ;
#81 = DIRECTION ( 'NONE',  ( 0.000000000000000000, 0.000000000000000000, -1.000000000000000000 ) ) ;
#82 = EDGE_LOOP ( 'NONE', ( #394, #328, #264, #345, #44, #105 ) ) ;
#83 = ADVANCED_FACE ( 'NONE', ( #225 ), #194, .F. ) ;
#84 = EDGE_LOOP ( 'NONE', ( #136, #205, #396, #326 ) ) ;
#85 = DIRECTION ( 'NONE',  ( 0.000000000000000000, 0.000000000000000000, -1.000000000000000000 ) ) ;
#86 = ORIENTED_EDGE ( 'NONE', *, *, #97, .T. ) ;
#87 = VECTOR ( 'NONE', #129, 1000.000000000000000 ) ;
#88 = EDGE_CURVE ( 'NONE', #203, #26, #288, .T. ) ;
#89 = VECTOR ( 'NONE', #58, 1000.000000000000227 ) ;
#90 = ORIENTED_EDGE ( 'NONE', *, *, #196, .F. ) ;
#91 = DIRECTION ( 'NONE',  ( 0.000000000000000000, 1.000000000000000000, 0.000000000000000000 ) ) ;
#92 = CARTESIAN_POINT ( 'NONE',  ( -2.000000000000000000, 3.000000000000000000, -4.000000000000000000 ) ) ;
#93 = DIRECTION ( 'NONE',  ( 0.000000000000000000, 0.000000000000000000, -1.000000000000000000 ) ) ;
#94 = DIRECTION ( 'NONE',  ( 1.000000000000000000, -0.000000000000000000, -0.000000000000000000 ) ) ;
#95 = AXIS2_PLACEMENT_3D ( 'NONE', #316, #162, #15 ) ;
#96 = VECTOR ( 'NONE', #167, 1000.000000000000000 ) ;
#97 = EDGE_CURVE ( 'NONE', #26, #337, #289, .T. ) ;
#98 = FACE_BOUND ( 'NONE', #182, .T. ) ;
#99 = FACE_OUTER_BOUND ( 'NONE', #215, .T. ) ;
#100 = LINE ( 'NONE', #34, #276 ) ;
#101 = AXIS2_PLACEMENT_3D ( 'NONE', #78, #209, #241 ) ;
#102 = DIRECTION ( 'NONE',  ( 1.000000000000000000, -0.000000000000000000, -0.000000000000000000 ) ) ;
#103 = DIRECTION ( 'NONE',  ( -1.000000000000000000, -1.288006974583654401E-16, 0.000000000000000000 ) ) ;
#104 = CARTESIAN_POINT ( 'NONE',  ( 0.000000000000000000, 3.000000000000000000, -5.549999999999993605 ) ) ;
#105 = ORIENTED_EDGE ( 'NONE', *, *, #250, .F. ) ;
#106 = VECTOR ( 'NONE', #102, 1000.000000000000000 ) ;
#107 = FACE_OUTER_BOUND ( 'NONE', #303, .T. ) ;
#108 = ORIENTED_EDGE ( 'NONE', *, *, #321, .F. ) ;
#109 = LINE ( 'NONE', #51, #275 ) ;
#110 = EDGE_LOOP ( 'NONE', ( #368, #240 ) ) ;
#111 = DIRECTION ( 'NONE',  ( 1.000000000000000000, -0.000000000000000000, -0.000000000000000000 ) ) ;
#112 = ORIENTED_EDGE ( 'NONE', *, *, #245, .F. ) ;
#113 = EDGE_CURVE ( 'NONE', #244, #388, #227, .T. ) ;
#114 = EDGE_CURVE ( 'NONE', #79, #52, #2, .T. ) ;
#115 = CIRCLE ( 'NONE', #31, 1.549999999999999378 ) ;
#116 = SURFACE_STYLE_FILL_AREA ( #141 ) ;
#117 = ORIENTED_EDGE ( 'NONE', *, *, #130, .F. ) ;
#118 = DIRECTION ( 'NONE',  ( 0.000000000000000000, 0.000000000000000000, 1.000000000000000000 ) ) ;
#119 = PRESENTATION_STYLE_ASSIGNMENT (( #202 ) ) ;
#120 = PLANE ( 'NONE',  #354 ) ;
#121 = DIRECTION ( 'NONE',  ( -0.000000000000000000, -0.000000000000000000, -1.000000000000000000 ) ) ;
#122 = LINE ( 'NONE', #27, #184 ) ;
#123 = CARTESIAN_POINT ( 'NONE',  ( 6.965726697194148720, 8.971904569029626610E-16, -7.500000000000000000 ) ) ;
#124 = DIRECTION ( 'NONE',  ( 1.000000000000000000, 0.000000000000000000, 0.000000000000000000 ) ) ;
#125 = ORIENTED_EDGE ( 'NONE', *, *, #189, .T. ) ;
#126 = EDGE_CURVE ( 'NONE', #388, #26, #229, .T. ) ;
#127 = DIRECTION ( 'NONE',  ( 0.000000000000000000, 0.000000000000000000, -1.000000000000000000 ) ) ;
#128 = STYLED_ITEM ( 'NONE', ( #119 ), #360 ) ;
#129 = DIRECTION ( 'NONE',  ( -0.000000000000000000, -0.000000000000000000, -1.000000000000000000 ) ) ;
#130 = EDGE_CURVE ( 'NONE', #203, #242, #233, .T. ) ;
#131 = FACE_BOUND ( 'NONE', #271, .T. ) ;
#132 = CARTESIAN_POINT ( 'NONE',  ( -1.999999999999998668, -4.763257646344439600, 7.500000000000000000 ) ) ;
#133 = VECTOR ( 'NONE', #260, 1000.000000000000000 ) ;
#134 = LINE ( 'NONE', #350, #96 ) ;
#135 = DIRECTION ( 'NONE',  ( 1.000000000000000000, -0.000000000000000000, -0.000000000000000000 ) ) ;
#136 = ORIENTED_EDGE ( 'NONE', *, *, #170, .T. ) ;
#137 = CARTESIAN_POINT ( 'NONE',  ( 0.000000000000000000, 0.000000000000000000, -7.500000000000000000 ) ) ;
#138 = ORIENTED_EDGE ( 'NONE', *, *, #280, .F. ) ;
#139 = AXIS2_PLACEMENT_3D ( 'NONE', #361, #135, #397 ) ;
#140 = AXIS2_PLACEMENT_3D ( 'NONE', #218, #85, #312 ) ;
#141 = FILL_AREA_STYLE ('',( #18 ) ) ;
#142 = ORIENTED_EDGE ( 'NONE', *, *, #38, .F. ) ;
#143 = DIRECTION ( 'NONE',  ( 1.288006974583654401E-16, -1.000000000000000000, 0.000000000000000000 ) ) ;
#144 = ADVANCED_FACE ( 'NONE', ( #197, #98, #99 ), #347, .F. ) ;
#145 = ORIENTED_EDGE ( 'NONE', *, *, #29, .F. ) ;
#146 = EDGE_CURVE ( 'NONE', #219, #47, #344, .T. ) ;
#147 = PLANE ( 'NONE',  #101 ) ;
#148 = ORIENTED_EDGE ( 'NONE', *, *, #348, .T. ) ;
#149 = MECHANICAL_DESIGN_GEOMETRIC_PRESENTATION_REPRESENTATION (  '', ( #128 ), #56 ) ;
#150 = CARTESIAN_POINT ( 'NONE',  ( 6.965726697194148720, -1.499999999999999334, 7.500000000000000000 ) ) ;
#151 = ORIENTED_EDGE ( 'NONE', *, *, #196, .T. ) ;
#152 = UNCERTAINTY_MEASURE_WITH_UNIT (LENGTH_MEASURE( 1.000000000000000082E-05 ), #277, 'distance_accuracy_value', 'NONE');
#153 =( NAMED_UNIT ( * ) PLANE_ANGLE_UNIT ( ) SI_UNIT ( $, .RADIAN. ) );
#154 = CARTESIAN_POINT ( 'NONE',  ( 0.000000000000000000, 3.000000000000000000, -2.450000000000006839 ) ) ;
#155 = SHAPE_DEFINITION_REPRESENTATION ( #317, #376 ) ;
#156 = ORIENTED_EDGE ( 'NONE', *, *, #146, .T. ) ;
#157 = CARTESIAN_POINT ( 'NONE',  ( -2.000000000000000000, 3.000000000000000000, 2.450000000000000622 ) ) ;
#158 = PRODUCT_RELATED_PRODUCT_CATEGORY ( 'part', '', ( #161 ) ) ;
#159 = DIRECTION ( 'NONE',  ( 0.000000000000000000, 0.000000000000000000, -1.000000000000000000 ) ) ;
#160 = FACE_OUTER_BOUND ( 'NONE', #298, .T. ) ;
#161 = PRODUCT ( 'ART_Butee_10', 'ART_Butee_10', '', ( #223 ) ) ;
#162 = DIRECTION ( 'NONE',  ( 0.000000000000000000, 0.000000000000000000, -1.000000000000000000 ) ) ;
#163 = AXIS2_PLACEMENT_3D ( 'NONE', #239, #111, #172 ) ;
#164 = ADVANCED_FACE ( 'NONE', ( #65, #131, #71 ), #287, .F. ) ;
#165 = DIRECTION ( 'NONE',  ( 1.000000000000000000, -0.000000000000000000, -0.000000000000000000 ) ) ;
#166 = CARTESIAN_POINT ( 'NONE',  ( 1.365481181049296074E-15, 3.000000000000000000, 4.000000000000000000 ) ) ;
#167 = DIRECTION ( 'NONE',  ( -0.000000000000000000, -0.000000000000000000, -1.000000000000000000 ) ) ;
#168 = AXIS2_PLACEMENT_3D ( 'NONE', #294, #143, #364 ) ;
#169 = CARTESIAN_POINT ( 'NONE',  ( 0.000000000000000000, 0.000000000000000000, 7.500000000000000000 ) ) ;
#170 = EDGE_CURVE ( 'NONE', #295, #30, #100, .T. ) ;
#171 = ORIENTED_EDGE ( 'NONE', *, *, #393, .F. ) ;
#172 = DIRECTION ( 'NONE',  ( 0.000000000000000000, 0.000000000000000000, -1.000000000000000000 ) ) ;
#173 = EDGE_LOOP ( 'NONE', ( #86, #108, #117, #238 ) ) ;
#174 = DIRECTION ( 'NONE',  ( -0.000000000000000000, -0.000000000000000000, -1.000000000000000000 ) ) ;
#175 = ORIENTED_EDGE ( 'NONE', *, *, #201, .F. ) ;
#176 = VECTOR ( 'NONE', #333, 1000.000000000000000 ) ;
#177 = PRODUCT_DEFINITION_FORMATION_WITH_SPECIFIED_SOURCE ( 'ANY', '', #161, .NOT_KNOWN. ) ;
#178 = CARTESIAN_POINT ( 'NONE',  ( -2.000000000000000000, 6.000000000000000000, 7.500000000000000000 ) ) ;
#179 = ORIENTED_EDGE ( 'NONE', *, *, #321, .T. ) ;
#180 = CARTESIAN_POINT ( 'NONE',  ( 0.000000000000000000, 0.000000000000000000, 7.500000000000000000 ) ) ;
#181 = ORIENTED_EDGE ( 'NONE', *, *, #245, .T. ) ;
#182 = EDGE_LOOP ( 'NONE', ( #399, #21 ) ) ;
#183 = AXIS2_PLACEMENT_3D ( 'NONE', #150, #400, #118 ) ;
#184 = VECTOR ( 'NONE', #91, 1000.000000000000000 ) ;
#185 = FACE_OUTER_BOUND ( 'NONE', #378, .T. ) ;
#186 = VERTEX_POINT ( 'NONE', #199 ) ;
#187 = APPLICATION_PROTOCOL_DEFINITION ( 'draft international standard', 'automotive_design', 1998, #363 ) ;
#188 = CARTESIAN_POINT ( 'NONE',  ( 0.000000000000000000, 3.000000000000000000, 5.549999999999993605 ) ) ;
#189 = EDGE_CURVE ( 'NONE', #75, #30, #134, .T. ) ;
#190 = CARTESIAN_POINT ( 'NONE',  ( 0.000000000000000000, 6.000000000000000000, 7.500000000000000000 ) ) ;
#191 = VECTOR ( 'NONE', #355, 1000.000000000000000 ) ;
#192 = EDGE_CURVE ( 'NONE', #213, #244, #68, .T. ) ;
#193 = ORIENTED_EDGE ( 'NONE', *, *, #377, .T. ) ;
#194 = PLANE ( 'NONE',  #183 ) ;
#195 = DIRECTION ( 'NONE',  ( 1.000000000000000000, -0.000000000000000000, -0.000000000000000000 ) ) ;
#196 = EDGE_CURVE ( 'NONE', #391, #52, #384, .T. ) ;
#197 = FACE_BOUND ( 'NONE', #353, .T. ) ;
#198 = AXIS2_PLACEMENT_3D ( 'NONE', #49, #41, #387 ) ;
#199 = CARTESIAN_POINT ( 'NONE',  ( -2.000000000000000000, 3.000000000000000000, -2.450000000000000622 ) ) ;
#200 = DIRECTION ( 'NONE',  ( -0.000000000000000000, -0.000000000000000000, -1.000000000000000000 ) ) ;
#201 = EDGE_CURVE ( 'NONE', #61, #391, #266, .T. ) ;
#202 = SURFACE_STYLE_USAGE ( .BOTH. , #243 ) ;
#203 = VERTEX_POINT ( 'NONE', #315 ) ;
#204 = CARTESIAN_POINT ( 'NONE',  ( -2.000000000000000000, 3.000000000000000000, 4.000000000000000000 ) ) ;
#205 = ORIENTED_EDGE ( 'NONE', *, *, #189, .F. ) ;
#206 = FACE_OUTER_BOUND ( 'NONE', #173, .T. ) ;
#207 = ORIENTED_EDGE ( 'NONE', *, *, #274, .T. ) ;
#208 = EDGE_CURVE ( 'NONE', #366, #295, #380, .T. ) ;
#209 = DIRECTION ( 'NONE',  ( 0.000000000000000000, -1.000000000000000000, 0.000000000000000000 ) ) ;
#210 = EDGE_LOOP ( 'NONE', ( #273, #269, #57, #179 ) ) ;
#211 = VECTOR ( 'NONE', #121, 1000.000000000000000 ) ;
#212 = CARTESIAN_POINT ( 'NONE',  ( 0.000000000000000000, 0.000000000000000000, -7.500000000000000000 ) ) ;
#213 = VERTEX_POINT ( 'NONE', #323 ) ;
#214 = CARTESIAN_POINT ( 'NONE',  ( -1.999999999999998668, -4.763257646344439600, 7.500000000000000000 ) ) ;
#215 = EDGE_LOOP ( 'NONE', ( #247, #293, #112, #125 ) ) ;
#216 = ORIENTED_EDGE ( 'NONE', *, *, #221, .T. ) ;
#217 = VECTOR ( 'NONE', #253, 1000.000000000000000 ) ;
#218 = CARTESIAN_POINT ( 'NONE',  ( 0.000000000000000000, 0.000000000000000000, -7.500000000000000000 ) ) ;
#219 = VERTEX_POINT ( 'NONE', #290 ) ;
#220 = CARTESIAN_POINT ( 'NONE',  ( -2.000000000000000000, 3.000000000000000000, -5.549999999999998934 ) ) ;
#221 = EDGE_CURVE ( 'NONE', #52, #79, #338, .T. ) ;
#222 = ADVANCED_FACE ( 'NONE', ( #160 ), #284, .F. ) ;
#223 = PRODUCT_CONTEXT ( 'NONE', #228, 'mechanical' ) ;
#224 = CARTESIAN_POINT ( 'NONE',  ( 1.365481181049296074E-15, 3.000000000000000000, -2.450000000000013056 ) ) ;
#225 = FACE_OUTER_BOUND ( 'NONE', #50, .T. ) ;
#226 = ADVANCED_FACE ( 'NONE', ( #107 ), #46, .F. ) ;
#227 = LINE ( 'NONE', #37, #286 ) ;
#228 = APPLICATION_CONTEXT ( 'automotive_design' ) ;
#229 = LINE ( 'NONE', #262, #349 ) ;
#230 = DIRECTION ( 'NONE',  ( -1.000000000000000000, 0.000000000000000000, 0.000000000000000000 ) ) ;
#231 = CARTESIAN_POINT ( 'NONE',  ( -2.000000000000000000, 3.000000000000000000, 4.000000000000000000 ) ) ;
#232 = ADVANCED_FACE ( 'NONE', ( #301 ), #263, .F. ) ;
#233 = LINE ( 'NONE', #352, #261 ) ;
#234 = LINE ( 'NONE', #178, #365 ) ;
#235 = ORIENTED_EDGE ( 'NONE', *, *, #377, .F. ) ;
#236 = LINE ( 'NONE', #137, #176 ) ;
#237 = EDGE_CURVE ( 'NONE', #391, #61, #306, .T. ) ;
#238 = ORIENTED_EDGE ( 'NONE', *, *, #88, .T. ) ;
#239 = CARTESIAN_POINT ( 'NONE',  ( -2.000000000000000000, 3.000000000000000000, -4.000000000000000000 ) ) ;
#240 = ORIENTED_EDGE ( 'NONE', *, *, #114, .F. ) ;
#241 = DIRECTION ( 'NONE',  ( 0.000000000000000000, -0.000000000000000000, -1.000000000000000000 ) ) ;
#242 = VERTEX_POINT ( 'NONE', #169 ) ;
#243 = SURFACE_SIDE_STYLE ('',( #116 ) ) ;
#244 = VERTEX_POINT ( 'NONE', #43 ) ;
#245 = EDGE_CURVE ( 'NONE', #75, #213, #234, .T. ) ;
#246 = EDGE_LOOP ( 'NONE', ( #334, #59, #305, #357 ) ) ;
#247 = ORIENTED_EDGE ( 'NONE', *, *, #285, .T. ) ;
#248 = AXIS2_PLACEMENT_3D ( 'NONE', #33, #195, #385 ) ;
#249 =( NAMED_UNIT ( * ) PLANE_ANGLE_UNIT ( ) SI_UNIT ( $, .RADIAN. ) );
#250 = EDGE_CURVE ( 'NONE', #337, #295, #236, .T. ) ;
#251 = CARTESIAN_POINT ( 'NONE',  ( 1.365481181049296074E-15, 3.000000000000000000, 2.450000000000013056 ) ) ;
#252 =( LENGTH_UNIT ( ) NAMED_UNIT ( * ) SI_UNIT ( .MILLI., .METRE. ) );
#253 = DIRECTION ( 'NONE',  ( 1.000000000000000000, -0.000000000000000000, -0.000000000000000000 ) ) ;
#254 = APPLICATION_PROTOCOL_DEFINITION ( 'draft international standard', 'automotive_design', 1998, #228 ) ;
#255 = CYLINDRICAL_SURFACE ( 'NONE', #383, 1.549999999999993161 ) ;
#256 = AXIS2_PLACEMENT_3D ( 'NONE', #11, #259, #382 ) ;
#257 = DIRECTION ( 'NONE',  ( 0.9396926207859103153, 0.3420201433256632728, 0.000000000000000000 ) ) ;
#258 = CARTESIAN_POINT ( 'NONE',  ( -2.000000000000000000, 6.000000000000000000, 7.500000000000000000 ) ) ;
#259 = DIRECTION ( 'NONE',  ( -1.000000000000000000, 0.000000000000000000, 0.000000000000000000 ) ) ;
#260 = DIRECTION ( 'NONE',  ( -0.000000000000000000, -0.000000000000000000, -1.000000000000000000 ) ) ;
#261 = VECTOR ( 'NONE', #66, 1000.000000000000000 ) ;
#262 = CARTESIAN_POINT ( 'NONE',  ( 6.965726697194148720, -1.499999999999999334, -7.500000000000000000 ) ) ;
#263 = CYLINDRICAL_SURFACE ( 'NONE', #198, 1.549999999999993161 ) ;
#264 = ORIENTED_EDGE ( 'NONE', *, *, #113, .F. ) ;
#265 = CARTESIAN_POINT ( 'NONE',  ( 6.965726697194148720, -1.499999999999999334, 7.500000000000000000 ) ) ;
#266 = CIRCLE ( 'NONE', #297, 1.549999999999999378 ) ;
#267 = ORIENTED_EDGE ( 'NONE', *, *, #146, .F. ) ;
#268 = CYLINDRICAL_SURFACE ( 'NONE', #291, 1.549999999999993161 ) ;
#269 = ORIENTED_EDGE ( 'NONE', *, *, #208, .F. ) ;
#270 = FACE_OUTER_BOUND ( 'NONE', #246, .T. ) ;
#271 = EDGE_LOOP ( 'NONE', ( #267, #64 ) ) ;
#272 = DIRECTION ( 'NONE',  ( 0.000000000000000000, 1.000000000000000000, 0.000000000000000000 ) ) ;
#273 = ORIENTED_EDGE ( 'NONE', *, *, #250, .T. ) ;
#274 = EDGE_CURVE ( 'NONE', #54, #219, #327, .T. ) ;
#275 = VECTOR ( 'NONE', #74, 1000.000000000000000 ) ;
#276 = VECTOR ( 'NONE', #230, 1000.000000000000000 ) ;
#277 =( LENGTH_UNIT ( ) NAMED_UNIT ( * ) SI_UNIT ( .MILLI., .METRE. ) );
#278 = DIRECTION ( 'NONE',  ( 1.000000000000000000, -0.000000000000000000, -0.000000000000000000 ) ) ;
#279 = DIRECTION ( 'NONE',  ( -0.3420201433256633283, 0.9396926207859104263, 0.000000000000000000 ) ) ;
#280 = EDGE_CURVE ( 'NONE', #54, #186, #55, .T. ) ;
#281 = LINE ( 'NONE', #370, #211 ) ;
#282 = DIRECTION ( 'NONE',  ( 1.000000000000000000, -0.000000000000000000, -0.000000000000000000 ) ) ;
#283 = CARTESIAN_POINT ( 'NONE',  ( -2.000000000000000000, 6.000000000000000000, 7.500000000000000000 ) ) ;
#284 = PLANE ( 'NONE',  #95 ) ;
#285 = EDGE_CURVE ( 'NONE', #30, #244, #292, .T. ) ;
#286 = VECTOR ( 'NONE', #257, 1000.000000000000227 ) ;
#287 = PLANE ( 'NONE',  #256 ) ;
#288 = LINE ( 'NONE', #346, #87 ) ;
#289 = LINE ( 'NONE', #13, #8 ) ;
#290 = CARTESIAN_POINT ( 'NONE',  ( 1.365481181049296074E-15, 3.000000000000000000, -5.549999999999987388 ) ) ;
#291 = AXIS2_PLACEMENT_3D ( 'NONE', #329, #367, #81 ) ;
#292 = LINE ( 'NONE', #331, #48 ) ;
#293 = ORIENTED_EDGE ( 'NONE', *, *, #192, .F. ) ;
#294 = CARTESIAN_POINT ( 'NONE',  ( 6.965726697194148720, 8.971904569029626610E-16, 7.500000000000000000 ) ) ;
#295 = VERTEX_POINT ( 'NONE', #325 ) ;
#296 = LINE ( 'NONE', #214, #89 ) ;
#297 = AXIS2_PLACEMENT_3D ( 'NONE', #231, #351, #127 ) ;
#298 = EDGE_LOOP ( 'NONE', ( #19, #148, #343, #181, #193, #339 ) ) ;
#299 = DIRECTION ( 'NONE',  ( 1.208781439348413936E-16, -1.000000000000000000, 0.000000000000000000 ) ) ;
#300 = VERTEX_POINT ( 'NONE', #265 ) ;
#301 = FACE_OUTER_BOUND ( 'NONE', #310, .T. ) ;
#302 = ADVANCED_FACE ( 'NONE', ( #358 ), #147, .F. ) ;
#303 = EDGE_LOOP ( 'NONE', ( #335, #77, #151, #216 ) ) ;
#304 = CARTESIAN_POINT ( 'NONE',  ( 6.965726697194148720, -1.499999999999999334, -7.500000000000000000 ) ) ;
#305 = ORIENTED_EDGE ( 'NONE', *, *, #69, .T. ) ;
#306 = CIRCLE ( 'NONE', #319, 1.549999999999999378 ) ;
#307 = LINE ( 'NONE', #154, #217 ) ;
#308 = EDGE_CURVE ( 'NONE', #366, #75, #109, .T. ) ;
#309 = FACE_OUTER_BOUND ( 'NONE', #82, .T. ) ;
#310 = EDGE_LOOP ( 'NONE', ( #145, #138, #207, #156 ) ) ;
#311 = CARTESIAN_POINT ( 'NONE',  ( -2.000000000000000000, 3.000000000000000000, 5.549999999999998934 ) ) ;
#312 = DIRECTION ( 'NONE',  ( -1.000000000000000000, 0.000000000000000000, 0.000000000000000000 ) ) ;
#313 = FACE_OUTER_BOUND ( 'NONE', #371, .T. ) ;
#314 = ADVANCED_FACE ( 'NONE', ( #206 ), #20, .F. ) ;
#315 = CARTESIAN_POINT ( 'NONE',  ( 6.965726697194148720, 8.971904569029626610E-16, 7.500000000000000000 ) ) ;
#316 = CARTESIAN_POINT ( 'NONE',  ( 0.000000000000000000, 0.000000000000000000, 7.500000000000000000 ) ) ;
#317 = PRODUCT_DEFINITION_SHAPE ( 'NONE', 'NONE',  #3 ) ;
#318 = PRODUCT_DEFINITION_CONTEXT ( 'detailed design', #363, 'design' ) ;
#319 = AXIS2_PLACEMENT_3D ( 'NONE', #204, #395, #392 ) ;
#320 = DIRECTION ( 'NONE',  ( 1.000000000000000000, 1.208781439348414183E-16, -0.000000000000000000 ) ) ;
#321 = EDGE_CURVE ( 'NONE', #242, #337, #390, .T. ) ;
#322 = DIRECTION ( 'NONE',  ( 0.000000000000000000, 0.000000000000000000, -1.000000000000000000 ) ) ;
#323 = CARTESIAN_POINT ( 'NONE',  ( -1.999999999999998668, -4.763257646344439600, 7.500000000000000000 ) ) ;
#324 = AXIS2_PLACEMENT_3D ( 'NONE', #166, #9, #322 ) ;
#325 = CARTESIAN_POINT ( 'NONE',  ( 0.000000000000000000, 6.000000000000000000, -7.500000000000000000 ) ) ;
#326 = ORIENTED_EDGE ( 'NONE', *, *, #208, .T. ) ;
#327 = LINE ( 'NONE', #104, #191 ) ;
#328 = ORIENTED_EDGE ( 'NONE', *, *, #126, .F. ) ;
#329 = CARTESIAN_POINT ( 'NONE',  ( 0.000000000000000000, 3.000000000000000000, -4.000000000000000000 ) ) ;
#330 = ORIENTED_EDGE ( 'NONE', *, *, #201, .T. ) ;
#331 = CARTESIAN_POINT ( 'NONE',  ( -2.000000000000000000, 6.000000000000000000, -7.500000000000000000 ) ) ;
#332 = ORIENTED_EDGE ( 'NONE', *, *, #88, .F. ) ;
#333 = DIRECTION ( 'NONE',  ( 0.000000000000000000, 1.000000000000000000, 0.000000000000000000 ) ) ;
#334 = ORIENTED_EDGE ( 'NONE', *, *, #53, .F. ) ;
#335 = ORIENTED_EDGE ( 'NONE', *, *, #60, .F. ) ;
#336 = ADVANCED_FACE ( 'NONE', ( #270 ), #268, .F. ) ;
#337 = VERTEX_POINT ( 'NONE', #212 ) ;
#338 = CIRCLE ( 'NONE', #248, 1.549999999999987166 ) ;
#339 = ORIENTED_EDGE ( 'NONE', *, *, #393, .T. ) ;
#340 = UNCERTAINTY_MEASURE_WITH_UNIT (LENGTH_MEASURE( 1.000000000000000082E-05 ), #252, 'distance_accuracy_value', 'NONE');
#341 = PLANE ( 'NONE',  #140 ) ;
#342 = LINE ( 'NONE', #188, #40 ) ;
#343 = ORIENTED_EDGE ( 'NONE', *, *, #308, .T. ) ;
#344 = CIRCLE ( 'NONE', #72, 1.549999999999987166 ) ;
#345 = ORIENTED_EDGE ( 'NONE', *, *, #285, .F. ) ;
#346 = CARTESIAN_POINT ( 'NONE',  ( 6.965726697194148720, 8.971904569029626610E-16, 7.500000000000000000 ) ) ;
#347 = PLANE ( 'NONE',  #80 ) ;
#348 = EDGE_CURVE ( 'NONE', #242, #366, #76, .T. ) ;
#349 = VECTOR ( 'NONE', #381, 1000.000000000000000 ) ;
#350 = CARTESIAN_POINT ( 'NONE',  ( -2.000000000000000000, 6.000000000000000000, 7.500000000000000000 ) ) ;
#351 = DIRECTION ( 'NONE',  ( 1.000000000000000000, -0.000000000000000000, -0.000000000000000000 ) ) ;
#352 = CARTESIAN_POINT ( 'NONE',  ( 6.965726697194148720, 8.971904569029626610E-16, 7.500000000000000000 ) ) ;
#353 = EDGE_LOOP ( 'NONE', ( #42, #330 ) ) ;
#354 = AXIS2_PLACEMENT_3D ( 'NONE', #32, #279, #373 ) ;
#355 = DIRECTION ( 'NONE',  ( 1.000000000000000000, -0.000000000000000000, -0.000000000000000000 ) ) ;
#356 =( GEOMETRIC_REPRESENTATION_CONTEXT ( 3 ) GLOBAL_UNCERTAINTY_ASSIGNED_CONTEXT ( ( #152 ) ) GLOBAL_UNIT_ASSIGNED_CONTEXT ( ( #277, #153, #5 ) ) REPRESENTATION_CONTEXT ( 'NONE', 'WORKASPACE' ) );
#357 = ORIENTED_EDGE ( 'NONE', *, *, #274, .F. ) ;
#358 = FACE_OUTER_BOUND ( 'NONE', #84, .T. ) ;
#359 = ORIENTED_EDGE ( 'NONE', *, *, #113, .T. ) ;
#360 = MANIFOLD_SOLID_BREP ( 'Dégagement M2.51', #389 ) ;
#361 = CARTESIAN_POINT ( 'NONE',  ( 0.000000000000000000, 3.000000000000000000, 4.000000000000000000 ) ) ;
#362 = ORIENTED_EDGE ( 'NONE', *, *, #192, .T. ) ;
#363 = APPLICATION_CONTEXT ( 'automotive_design' ) ;
#364 = DIRECTION ( 'NONE',  ( 1.000000000000000000, 1.288006974583654401E-16, 0.000000000000000000 ) ) ;
#365 = VECTOR ( 'NONE', #22, 1000.000000000000000 ) ;
#366 = VERTEX_POINT ( 'NONE', #190 ) ;
#367 = DIRECTION ( 'NONE',  ( 1.000000000000000000, -0.000000000000000000, -0.000000000000000000 ) ) ;
#368 = ORIENTED_EDGE ( 'NONE', *, *, #221, .F. ) ;
#369 = DIRECTION ( 'NONE',  ( 0.000000000000000000, 0.000000000000000000, 1.000000000000000000 ) ) ;
#370 = CARTESIAN_POINT ( 'NONE',  ( 6.965726697194148720, -1.499999999999999334, 7.500000000000000000 ) ) ;
#371 = EDGE_LOOP ( 'NONE', ( #359, #142, #235, #362 ) ) ;
#372 =( NAMED_UNIT ( * ) SI_UNIT ( $, .STERADIAN. ) SOLID_ANGLE_UNIT ( ) );
#373 = DIRECTION ( 'NONE',  ( -0.9396926207859103153, -0.3420201433256632728, 0.000000000000000000 ) ) ;
#374 = CARTESIAN_POINT ( 'NONE',  ( 0.000000000000000000, 0.000000000000000000, 0.000000000000000000 ) ) ;
#375 = DIRECTION ( 'NONE',  ( 1.000000000000000000, -0.000000000000000000, -0.000000000000000000 ) ) ;
#376 = ADVANCED_BREP_SHAPE_REPRESENTATION ( 'ART_Butee_10', ( #360, #73 ), #356 ) ;
#377 = EDGE_CURVE ( 'NONE', #213, #300, #296, .T. ) ;
#378 = EDGE_LOOP ( 'NONE', ( #175, #16, #25, #90 ) ) ;
#379 = PRESENTATION_LAYER_ASSIGNMENT (  '', '', ( #128 ) ) ;
#380 = LINE ( 'NONE', #70, #67 ) ;
#381 = DIRECTION ( 'NONE',  ( 0.000000000000000000, 1.000000000000000000, 0.000000000000000000 ) ) ;
#382 = DIRECTION ( 'NONE',  ( 0.000000000000000000, 0.000000000000000000, 1.000000000000000000 ) ) ;
#383 = AXIS2_PLACEMENT_3D ( 'NONE', #28, #282, #4 ) ;
#384 = LINE ( 'NONE', #7, #106 ) ;
#385 = DIRECTION ( 'NONE',  ( 0.000000000000000000, 0.000000000000000000, -1.000000000000000000 ) ) ;
#386 = ADVANCED_FACE ( 'NONE', ( #309 ), #341, .T. ) ;
#387 = DIRECTION ( 'NONE',  ( 0.000000000000000000, 0.000000000000000000, -1.000000000000000000 ) ) ;
#388 = VERTEX_POINT ( 'NONE', #304 ) ;
#389 = CLOSED_SHELL ( 'NONE', ( #17, #336, #314, #164, #302, #144, #45, #83, #222, #386, #232, #226 ) ) ;
#390 = LINE ( 'NONE', #14, #12 ) ;
#391 = VERTEX_POINT ( 'NONE', #157 ) ;
#392 = DIRECTION ( 'NONE',  ( 0.000000000000000000, 0.000000000000000000, -1.000000000000000000 ) ) ;
#393 = EDGE_CURVE ( 'NONE', #300, #203, #122, .T. ) ;
#394 = ORIENTED_EDGE ( 'NONE', *, *, #97, .F. ) ;
#395 = DIRECTION ( 'NONE',  ( 1.000000000000000000, -0.000000000000000000, -0.000000000000000000 ) ) ;
#396 = ORIENTED_EDGE ( 'NONE', *, *, #308, .F. ) ;
#397 = DIRECTION ( 'NONE',  ( 0.000000000000000000, 0.000000000000000000, -1.000000000000000000 ) ) ;
#398 = COLOUR_RGB ( '',0.7921568627450980005, 0.8196078431372548767, 0.9333333333333333481 ) ;
#399 = ORIENTED_EDGE ( 'NONE', *, *, #280, .T. ) ;
#400 = DIRECTION ( 'NONE',  ( -1.000000000000000000, 0.000000000000000000, 0.000000000000000000 ) ) ;
#401 = ORIENTED_EDGE ( 'NONE', *, *, #126, .T. ) ;
ENDSEC;
END-ISO-10303-21;
