ISO-10303-21;
HEADER;
FILE_DESCRIPTION (( 'STEP AP214' ),
    '1' );
FILE_NAME ('Axe dahon.STEP',
    '2023-04-04T21:59:14',
    ( '' ),
    ( '' ),
    'SwSTEP 2.0',
    'SolidWorks 2010',
    '' );
FILE_SCHEMA (( 'AUTOMOTIVE_DESIGN' ));
ENDSEC;

DATA;
#1 = AXIS2_PLACEMENT_3D ( 'NONE', #160, #138, #156 ) ;
#2 = AXIS2_PLACEMENT_3D ( 'NONE', #150, #134, #158 ) ;
#3 = EDGE_CURVE ( 'NONE', #148, #161, #60, .T. ) ;
#4 = EDGE_CURVE ( 'NONE', #157, #143, #109, .T. ) ;
#5 = EDGE_CURVE ( 'NONE', #161, #139, #82, .T. ) ;
#6 = EDGE_CURVE ( 'NONE', #154, #139, #102, .T. ) ;
#7 = PRODUCT_DEFINITION ( 'UNKNOWN', '', #38, #39 ) ;
#8 = AXIS2_PLACEMENT_3D ( 'NONE', #196, #190, #178 ) ;
#9 = EDGE_CURVE ( 'NONE', #148, #154, #84, .T. ) ;
#10 = AXIS2_PLACEMENT_3D ( 'NONE', #165, #203, #206 ) ;
#11 = EDGE_CURVE ( 'NONE', #143, #139, #103, .T. ) ;
#12 = PRODUCT_RELATED_PRODUCT_CATEGORY ( 'part', '', ( #235 ) ) ;
#13 = AXIS2_PLACEMENT_3D ( 'NONE', #194, #207, #213 ) ;
#14 = EDGE_CURVE ( 'NONE', #162, #152, #73, .T. ) ;
#15 = EDGE_CURVE ( 'NONE', #139, #161, #64, .T. ) ;
#16 = EDGE_CURVE ( 'NONE', #157, #161, #79, .T. ) ;
#17 = AXIS2_PLACEMENT_3D ( 'NONE', #136, #151, #153 ) ;
#18 = AXIS2_PLACEMENT_3D ( 'NONE', #216, #195, #171 ) ;
#19 = EDGE_CURVE ( 'NONE', #152, #148, #65, .T. ) ;
#20 = AXIS2_PLACEMENT_3D ( 'NONE', #186, #217, #193 ) ;
#21 = EDGE_CURVE ( 'NONE', #152, #162, #90, .T. ) ;
#22 = AXIS2_PLACEMENT_3D ( 'NONE', #210, #175, #176 ) ;
#23 = AXIS2_PLACEMENT_3D ( 'NONE', #199, #192, #200 ) ;
#24 = EDGE_CURVE ( 'NONE', #162, #154, #96, .T. ) ;
#25 = EDGE_CURVE ( 'NONE', #154, #148, #92, .T. ) ;
#26 = AXIS2_PLACEMENT_3D ( 'NONE', #135, #132, #144 ) ;
#27 = AXIS2_PLACEMENT_3D ( 'NONE', #174, #209, #191 ) ;
#28 = EDGE_CURVE ( 'NONE', #143, #157, #97, .T. ) ;
#29 = AXIS2_PLACEMENT_3D ( 'NONE', #170, #167, #184 ) ;
#30 = AXIS2_PLACEMENT_3D ( 'NONE', #202, #214, #205 ) ;
#31 = AXIS2_PLACEMENT_3D ( 'NONE', #177, #198, #211 ) ;
#32 = PRESENTATION_LAYER_ASSIGNMENT (  '', '', ( #114 ) ) ;
#33 = MECHANICAL_DESIGN_GEOMETRIC_PRESENTATION_REPRESENTATION (  '', ( #114 ), #118 ) ;
#34 = PRESENTATION_LAYER_ASSIGNMENT (  '', '', ( #122 ) ) ;
#35 = MECHANICAL_DESIGN_GEOMETRIC_PRESENTATION_REPRESENTATION (  '', ( #122 ), #120 ) ;
#36 = AXIS2_PLACEMENT_3D ( 'NONE', #226, #224, #225 ) ;
#37 = AXIS2_PLACEMENT_3D ( 'NONE', #137, #133, #149 ) ;
#38 = PRODUCT_DEFINITION_FORMATION_WITH_SPECIFIED_SOURCE ( 'ANY', '', #235, .NOT_KNOWN. ) ;
#39 = PRODUCT_DEFINITION_CONTEXT ( 'detailed design', #232, 'design' ) ;
#40 = PRODUCT_DEFINITION_SHAPE ( 'NONE', 'NONE',  #7 ) ;
#41 = ORIENTED_EDGE ( 'NONE', *, *, #5, .T. ) ;
#42 = ORIENTED_EDGE ( 'NONE', *, *, #6, .F. ) ;
#43 = CLOSED_SHELL ( 'NONE', ( #128, #125, #126, #127, #124, #131, #130, #129 ) ) ;
#44 = ORIENTED_EDGE ( 'NONE', *, *, #21, .F. ) ;
#45 = ORIENTED_EDGE ( 'NONE', *, *, #28, .T. ) ;
#46 = ORIENTED_EDGE ( 'NONE', *, *, #25, .F. ) ;
#47 = ORIENTED_EDGE ( 'NONE', *, *, #19, .T. ) ;
#48 = ORIENTED_EDGE ( 'NONE', *, *, #16, .F. ) ;
#49 = ORIENTED_EDGE ( 'NONE', *, *, #5, .F. ) ;
#50 = ORIENTED_EDGE ( 'NONE', *, *, #24, .T. ) ;
#51 = ORIENTED_EDGE ( 'NONE', *, *, #3, .T. ) ;
#52 = ORIENTED_EDGE ( 'NONE', *, *, #15, .T. ) ;
#53 = ORIENTED_EDGE ( 'NONE', *, *, #11, .T. ) ;
#54 = ORIENTED_EDGE ( 'NONE', *, *, #4, .T. ) ;
#55 = ORIENTED_EDGE ( 'NONE', *, *, #15, .F. ) ;
#56 = ORIENTED_EDGE ( 'NONE', *, *, #16, .T. ) ;
#57 = ORIENTED_EDGE ( 'NONE', *, *, #28, .F. ) ;
#58 = ORIENTED_EDGE ( 'NONE', *, *, #25, .T. ) ;
#59 = ORIENTED_EDGE ( 'NONE', *, *, #24, .F. ) ;
#60 = LINE ( 'NONE', #140, #63 ) ;
#61 = FACE_OUTER_BOUND ( 'NONE', #101, .T. ) ;
#62 = EDGE_LOOP ( 'NONE', ( #42, #58, #51, #41 ) ) ;
#63 = VECTOR ( 'NONE', #142, 1000.000000000000000 ) ;
#64 = CIRCLE ( 'NONE', #1, 4.150000000000003000 ) ;
#65 = LINE ( 'NONE', #159, #86 ) ;
#66 = FACE_OUTER_BOUND ( 'NONE', #104, .T. ) ;
#67 = CYLINDRICAL_SURFACE ( 'NONE', #8, 4.150000000000003000 ) ;
#68 = CONICAL_SURFACE ( 'NONE', #22, 3.650000000000000400, 0.7853981633974361800 ) ;
#69 = CONICAL_SURFACE ( 'NONE', #13, 4.150000000000003000, 0.7853981633974500600 ) ;
#70 = FACE_OUTER_BOUND ( 'NONE', #106, .T. ) ;
#71 = FACE_OUTER_BOUND ( 'NONE', #99, .T. ) ;
#72 = VECTOR ( 'NONE', #146, 1000.000000000000000 ) ;
#73 = CIRCLE ( 'NONE', #17, 3.650000000000007500 ) ;
#74 = ORIENTED_EDGE ( 'NONE', *, *, #14, .F. ) ;
#75 = ORIENTED_EDGE ( 'NONE', *, *, #3, .F. ) ;
#76 = CONICAL_SURFACE ( 'NONE', #30, 3.650000000000000400, 0.7853981633974361800 ) ;
#77 = ORIENTED_EDGE ( 'NONE', *, *, #4, .F. ) ;
#78 = ORIENTED_EDGE ( 'NONE', *, *, #19, .F. ) ;
#79 = LINE ( 'NONE', #163, #88 ) ;
#80 = ORIENTED_EDGE ( 'NONE', *, *, #21, .T. ) ;
#81 = FACE_OUTER_BOUND ( 'NONE', #83, .T. ) ;
#82 = CIRCLE ( 'NONE', #37, 4.150000000000003000 ) ;
#83 = EDGE_LOOP ( 'NONE', ( #74, #50, #94, #78 ) ) ;
#84 = CIRCLE ( 'NONE', #2, 4.150000000000003000 ) ;
#85 = EDGE_LOOP ( 'NONE', ( #45, #54 ) ) ;
#86 = VECTOR ( 'NONE', #164, 1000.000000000000000 ) ;
#87 = VECTOR ( 'NONE', #183, 1000.000000000000000 ) ;
#88 = VECTOR ( 'NONE', #155, 1000.000000000000000 ) ;
#89 = FACE_OUTER_BOUND ( 'NONE', #108, .T. ) ;
#90 = CIRCLE ( 'NONE', #10, 3.650000000000007500 ) ;
#91 = FACE_OUTER_BOUND ( 'NONE', #62, .T. ) ;
#92 = CIRCLE ( 'NONE', #18, 4.150000000000003000 ) ;
#93 = ORIENTED_EDGE ( 'NONE', *, *, #14, .T. ) ;
#94 = ORIENTED_EDGE ( 'NONE', *, *, #9, .F. ) ;
#95 = ORIENTED_EDGE ( 'NONE', *, *, #9, .T. ) ;
#96 = LINE ( 'NONE', #204, #87 ) ;
#97 = CIRCLE ( 'NONE', #20, 3.650000000000000400 ) ;
#98 = CONICAL_SURFACE ( 'NONE', #23, 4.150000000000003000, 0.7853981633974500600 ) ;
#99 = EDGE_LOOP ( 'NONE', ( #59, #44, #47, #46 ) ) ;
#100 = FACE_OUTER_BOUND ( 'NONE', #85, .T. ) ;
#101 = EDGE_LOOP ( 'NONE', ( #95, #107, #52, #75 ) ) ;
#102 = LINE ( 'NONE', #141, #110 ) ;
#103 = LINE ( 'NONE', #145, #72 ) ;
#104 = EDGE_LOOP ( 'NONE', ( #80, #93 ) ) ;
#105 = ORIENTED_EDGE ( 'NONE', *, *, #11, .F. ) ;
#106 = EDGE_LOOP ( 'NONE', ( #48, #57, #53, #49 ) ) ;
#107 = ORIENTED_EDGE ( 'NONE', *, *, #6, .T. ) ;
#108 = EDGE_LOOP ( 'NONE', ( #77, #56, #55, #105 ) ) ;
#109 = CIRCLE ( 'NONE', #26, 3.650000000000000400 ) ;
#110 = VECTOR ( 'NONE', #147, 1000.000000000000000 ) ;
#111 = CYLINDRICAL_SURFACE ( 'NONE', #29, 4.150000000000003000 ) ;
#112 = PRESENTATION_STYLE_ASSIGNMENT (( #180 ) ) ;
#113 = SURFACE_STYLE_FILL_AREA ( #189 ) ;
#114 = STYLED_ITEM ( 'NONE', ( #112 ), #240 ) ;
#115 = COLOUR_RGB ( '',0.7921568627450980000, 0.8196078431372548800, 0.9333333333333333500 ) ;
#116 = PRESENTATION_STYLE_ASSIGNMENT (( #227 ) ) ;
#117 = COLOUR_RGB ( '',0.7921568627450980000, 0.8196078431372548800, 0.9333333333333333500 ) ;
#118 =( GEOMETRIC_REPRESENTATION_CONTEXT ( 3 ) GLOBAL_UNCERTAINTY_ASSIGNED_CONTEXT ( ( #236 ) ) GLOBAL_UNIT_ASSIGNED_CONTEXT ( ( #182, #169, #188 ) ) REPRESENTATION_CONTEXT ( 'NONE', 'WORKASPACE' ) );
#119 =( GEOMETRIC_REPRESENTATION_CONTEXT ( 3 ) GLOBAL_UNCERTAINTY_ASSIGNED_CONTEXT ( ( #237 ) ) GLOBAL_UNIT_ASSIGNED_CONTEXT ( ( #172, #173, #221 ) ) REPRESENTATION_CONTEXT ( 'NONE', 'WORKASPACE' ) );
#120 =( GEOMETRIC_REPRESENTATION_CONTEXT ( 3 ) GLOBAL_UNCERTAINTY_ASSIGNED_CONTEXT ( ( #238 ) ) GLOBAL_UNIT_ASSIGNED_CONTEXT ( ( #228, #223, #230 ) ) REPRESENTATION_CONTEXT ( 'NONE', 'WORKASPACE' ) );
#121 = SHAPE_DEFINITION_REPRESENTATION ( #40, #239 ) ;
#122 = STYLED_ITEM ( 'NONE', ( #116 ), #239 ) ;
#123 = SURFACE_STYLE_FILL_AREA ( #219 ) ;
#124 = ADVANCED_FACE ( 'NONE', ( #91 ), #111, .T. ) ;
#125 = ADVANCED_FACE ( 'NONE', ( #81 ), #98, .T. ) ;
#126 = ADVANCED_FACE ( 'NONE', ( #61 ), #67, .T. ) ;
#127 = ADVANCED_FACE ( 'NONE', ( #66 ), #212, .F. ) ;
#128 = ADVANCED_FACE ( 'NONE', ( #89 ), #68, .T. ) ;
#129 = ADVANCED_FACE ( 'NONE', ( #70 ), #76, .T. ) ;
#130 = ADVANCED_FACE ( 'NONE', ( #71 ), #69, .T. ) ;
#131 = ADVANCED_FACE ( 'NONE', ( #100 ), #185, .F. ) ;
#132 = DIRECTION ( 'NONE',  ( -1.000000000000000000, -0.0000000000000000000, -0.0000000000000000000 ) ) ;
#133 = DIRECTION ( 'NONE',  ( 1.000000000000000000, 0.0000000000000000000, 0.0000000000000000000 ) ) ;
#134 = DIRECTION ( 'NONE',  ( -1.000000000000000000, -0.0000000000000000000, -0.0000000000000000000 ) ) ;
#135 = CARTESIAN_POINT ( 'NONE',  ( -21.59999999999999400, 0.0000000000000000000, 0.0000000000000000000 ) ) ;
#136 = CARTESIAN_POINT ( 'NONE',  ( 21.60000000000000100, 0.0000000000000000000, 0.0000000000000000000 ) ) ;
#137 = CARTESIAN_POINT ( 'NONE',  ( -21.09999999999998000, 0.0000000000000000000, 0.0000000000000000000 ) ) ;
#138 = DIRECTION ( 'NONE',  ( 1.000000000000000000, 0.0000000000000000000, 0.0000000000000000000 ) ) ;
#139 = VERTEX_POINT ( 'NONE', #181 ) ;
#140 = CARTESIAN_POINT ( 'NONE',  ( -57.85974974157917200, 0.0000000000000000000, 4.150000000000003000 ) ) ;
#141 = CARTESIAN_POINT ( 'NONE',  ( -57.85974974157917200, 5.082284216461519100E-016, -4.150000000000003000 ) ) ;
#142 = DIRECTION ( 'NONE',  ( -1.000000000000000000, -0.0000000000000000000, -0.0000000000000000000 ) ) ;
#143 = VERTEX_POINT ( 'NONE', #197 ) ;
#144 = DIRECTION ( 'NONE',  ( 0.0000000000000000000, 0.0000000000000000000, -1.000000000000000000 ) ) ;
#145 = CARTESIAN_POINT ( 'NONE',  ( -21.59999999999999400, 0.0000000000000000000, -3.650000000000000400 ) ) ;
#146 = DIRECTION ( 'NONE',  ( 0.7071067811865561200, 0.0000000000000000000, -0.7071067811865389100 ) ) ;
#147 = DIRECTION ( 'NONE',  ( -1.000000000000000000, -0.0000000000000000000, -0.0000000000000000000 ) ) ;
#148 = VERTEX_POINT ( 'NONE', #201 ) ;
#149 = DIRECTION ( 'NONE',  ( 0.0000000000000000000, 0.0000000000000000000, -1.000000000000000000 ) ) ;
#150 = CARTESIAN_POINT ( 'NONE',  ( 21.10000000000000900, 0.0000000000000000000, 0.0000000000000000000 ) ) ;
#151 = DIRECTION ( 'NONE',  ( 1.000000000000000000, 0.0000000000000000000, 0.0000000000000000000 ) ) ;
#152 = VERTEX_POINT ( 'NONE', #208 ) ;
#153 = DIRECTION ( 'NONE',  ( 0.0000000000000000000, 0.0000000000000000000, 1.000000000000000000 ) ) ;
#154 = VERTEX_POINT ( 'NONE', #179 ) ;
#155 = DIRECTION ( 'NONE',  ( 0.7071067811865561200, 8.659560562354828100E-017, 0.7071067811865389100 ) ) ;
#156 = DIRECTION ( 'NONE',  ( 0.0000000000000000000, 0.0000000000000000000, -1.000000000000000000 ) ) ;
#157 = VERTEX_POINT ( 'NONE', #215 ) ;
#158 = DIRECTION ( 'NONE',  ( 0.0000000000000000000, 0.0000000000000000000, 1.000000000000000000 ) ) ;
#159 = CARTESIAN_POINT ( 'NONE',  ( 21.10000000000000900, 0.0000000000000000000, 4.150000000000003000 ) ) ;
#160 = CARTESIAN_POINT ( 'NONE',  ( -21.09999999999998000, 0.0000000000000000000, 0.0000000000000000000 ) ) ;
#161 = VERTEX_POINT ( 'NONE', #187 ) ;
#162 = VERTEX_POINT ( 'NONE', #218 ) ;
#163 = CARTESIAN_POINT ( 'NONE',  ( -21.59999999999999400, 4.469960816887839400E-016, 3.650000000000000400 ) ) ;
#164 = DIRECTION ( 'NONE',  ( -0.7071067811865463500, 0.0000000000000000000, 0.7071067811865487900 ) ) ;
#165 = CARTESIAN_POINT ( 'NONE',  ( 21.60000000000000100, 0.0000000000000000000, 0.0000000000000000000 ) ) ;
#166 = FILL_AREA_STYLE_COLOUR ( '', #117 ) ;
#167 = DIRECTION ( 'NONE',  ( -1.000000000000000000, -0.0000000000000000000, -0.0000000000000000000 ) ) ;
#168 = SURFACE_SIDE_STYLE ('',( #113 ) ) ;
#169 =( NAMED_UNIT ( * ) PLANE_ANGLE_UNIT ( ) SI_UNIT ( $, .RADIAN. ) );
#170 = CARTESIAN_POINT ( 'NONE',  ( -57.85974974157917200, 0.0000000000000000000, 0.0000000000000000000 ) ) ;
#171 = DIRECTION ( 'NONE',  ( 0.0000000000000000000, 0.0000000000000000000, 1.000000000000000000 ) ) ;
#172 =( LENGTH_UNIT ( ) NAMED_UNIT ( * ) SI_UNIT ( .MILLI., .METRE. ) );
#173 =( NAMED_UNIT ( * ) PLANE_ANGLE_UNIT ( ) SI_UNIT ( $, .RADIAN. ) );
#174 = CARTESIAN_POINT ( 'NONE',  ( 21.60000000000000100, 0.0000000000000000000, 0.0000000000000000000 ) ) ;
#175 = DIRECTION ( 'NONE',  ( 1.000000000000000000, 0.0000000000000000000, 0.0000000000000000000 ) ) ;
#176 = DIRECTION ( 'NONE',  ( 0.0000000000000000000, 0.0000000000000000000, -1.000000000000000000 ) ) ;
#177 = CARTESIAN_POINT ( 'NONE',  ( -21.59999999999999400, 0.0000000000000000000, 0.0000000000000000000 ) ) ;
#178 = DIRECTION ( 'NONE',  ( 0.0000000000000000000, 0.0000000000000000000, 1.000000000000000000 ) ) ;
#179 = CARTESIAN_POINT ( 'NONE',  ( 21.10000000000000900, 5.082284216461519100E-016, -4.150000000000003000 ) ) ;
#180 = SURFACE_STYLE_USAGE ( .BOTH. , #168 ) ;
#181 = CARTESIAN_POINT ( 'NONE',  ( -21.09999999999998000, 5.082284216461519100E-016, -4.150000000000003000 ) ) ;
#182 =( LENGTH_UNIT ( ) NAMED_UNIT ( * ) SI_UNIT ( .MILLI., .METRE. ) );
#183 = DIRECTION ( 'NONE',  ( -0.7071067811865463500, 8.659560562354948900E-017, -0.7071067811865487900 ) ) ;
#184 = DIRECTION ( 'NONE',  ( 0.0000000000000000000, 0.0000000000000000000, 1.000000000000000000 ) ) ;
#185 = PLANE ( 'NONE',  #31 ) ;
#186 = CARTESIAN_POINT ( 'NONE',  ( -21.59999999999999400, 0.0000000000000000000, 0.0000000000000000000 ) ) ;
#187 = CARTESIAN_POINT ( 'NONE',  ( -21.09999999999998000, 0.0000000000000000000, 4.150000000000003000 ) ) ;
#188 =( NAMED_UNIT ( * ) SI_UNIT ( $, .STERADIAN. ) SOLID_ANGLE_UNIT ( ) );
#189 = FILL_AREA_STYLE ('',( #166 ) ) ;
#190 = DIRECTION ( 'NONE',  ( -1.000000000000000000, -0.0000000000000000000, -0.0000000000000000000 ) ) ;
#191 = DIRECTION ( 'NONE',  ( -0.0000000000000000000, 0.0000000000000000000, 1.000000000000000000 ) ) ;
#192 = DIRECTION ( 'NONE',  ( -1.000000000000000000, -0.0000000000000000000, -0.0000000000000000000 ) ) ;
#193 = DIRECTION ( 'NONE',  ( 0.0000000000000000000, 0.0000000000000000000, -1.000000000000000000 ) ) ;
#194 = CARTESIAN_POINT ( 'NONE',  ( 21.10000000000000900, 0.0000000000000000000, 0.0000000000000000000 ) ) ;
#195 = DIRECTION ( 'NONE',  ( -1.000000000000000000, -0.0000000000000000000, -0.0000000000000000000 ) ) ;
#196 = CARTESIAN_POINT ( 'NONE',  ( -57.85974974157917200, 0.0000000000000000000, 0.0000000000000000000 ) ) ;
#197 = CARTESIAN_POINT ( 'NONE',  ( -21.59999999999999400, 0.0000000000000000000, -3.650000000000000400 ) ) ;
#198 = DIRECTION ( 'NONE',  ( 1.000000000000000000, 0.0000000000000000000, 0.0000000000000000000 ) ) ;
#199 = CARTESIAN_POINT ( 'NONE',  ( 21.10000000000000900, 0.0000000000000000000, 0.0000000000000000000 ) ) ;
#200 = DIRECTION ( 'NONE',  ( 0.0000000000000000000, 0.0000000000000000000, 1.000000000000000000 ) ) ;
#201 = CARTESIAN_POINT ( 'NONE',  ( 21.10000000000000900, 0.0000000000000000000, 4.150000000000003000 ) ) ;
#202 = CARTESIAN_POINT ( 'NONE',  ( -21.59999999999999400, 0.0000000000000000000, 0.0000000000000000000 ) ) ;
#203 = DIRECTION ( 'NONE',  ( 1.000000000000000000, 0.0000000000000000000, 0.0000000000000000000 ) ) ;
#204 = CARTESIAN_POINT ( 'NONE',  ( 21.10000000000000900, 5.082284216461519100E-016, -4.150000000000003000 ) ) ;
#205 = DIRECTION ( 'NONE',  ( 0.0000000000000000000, 0.0000000000000000000, -1.000000000000000000 ) ) ;
#206 = DIRECTION ( 'NONE',  ( 0.0000000000000000000, 0.0000000000000000000, 1.000000000000000000 ) ) ;
#207 = DIRECTION ( 'NONE',  ( -1.000000000000000000, -0.0000000000000000000, -0.0000000000000000000 ) ) ;
#208 = CARTESIAN_POINT ( 'NONE',  ( 21.60000000000000100, 0.0000000000000000000, 3.650000000000007500 ) ) ;
#209 = DIRECTION ( 'NONE',  ( -1.000000000000000000, 0.0000000000000000000, -0.0000000000000000000 ) ) ;
#210 = CARTESIAN_POINT ( 'NONE',  ( -21.59999999999999400, 0.0000000000000000000, 0.0000000000000000000 ) ) ;
#211 = DIRECTION ( 'NONE',  ( 0.0000000000000000000, 0.0000000000000000000, -1.000000000000000000 ) ) ;
#212 = PLANE ( 'NONE',  #27 ) ;
#213 = DIRECTION ( 'NONE',  ( 0.0000000000000000000, 0.0000000000000000000, 1.000000000000000000 ) ) ;
#214 = DIRECTION ( 'NONE',  ( 1.000000000000000000, 0.0000000000000000000, 0.0000000000000000000 ) ) ;
#215 = CARTESIAN_POINT ( 'NONE',  ( -21.59999999999999400, 4.776122516674679300E-016, 3.650000000000000400 ) ) ;
#216 = CARTESIAN_POINT ( 'NONE',  ( 21.10000000000000900, 0.0000000000000000000, 0.0000000000000000000 ) ) ;
#217 = DIRECTION ( 'NONE',  ( -1.000000000000000000, -0.0000000000000000000, -0.0000000000000000000 ) ) ;
#218 = CARTESIAN_POINT ( 'NONE',  ( 21.60000000000000100, 4.776122516674683200E-016, -3.650000000000007500 ) ) ;
#219 = FILL_AREA_STYLE ('',( #222 ) ) ;
#220 = APPLICATION_CONTEXT ( 'automotive_design' ) ;
#221 =( NAMED_UNIT ( * ) SI_UNIT ( $, .STERADIAN. ) SOLID_ANGLE_UNIT ( ) );
#222 = FILL_AREA_STYLE_COLOUR ( '', #115 ) ;
#223 =( NAMED_UNIT ( * ) PLANE_ANGLE_UNIT ( ) SI_UNIT ( $, .RADIAN. ) );
#224 = DIRECTION ( 'NONE',  ( 0.0000000000000000000, 0.0000000000000000000, 1.000000000000000000 ) ) ;
#225 = DIRECTION ( 'NONE',  ( 1.000000000000000000, 0.0000000000000000000, 0.0000000000000000000 ) ) ;
#226 = CARTESIAN_POINT ( 'NONE',  ( 0.0000000000000000000, 0.0000000000000000000, 0.0000000000000000000 ) ) ;
#227 = SURFACE_STYLE_USAGE ( .BOTH. , #231 ) ;
#228 =( LENGTH_UNIT ( ) NAMED_UNIT ( * ) SI_UNIT ( .MILLI., .METRE. ) );
#229 = PRODUCT_CONTEXT ( 'NONE', #220, 'mechanical' ) ;
#230 =( NAMED_UNIT ( * ) SI_UNIT ( $, .STERADIAN. ) SOLID_ANGLE_UNIT ( ) );
#231 = SURFACE_SIDE_STYLE ('',( #123 ) ) ;
#232 = APPLICATION_CONTEXT ( 'automotive_design' ) ;
#233 = APPLICATION_PROTOCOL_DEFINITION ( 'draft international standard', 'automotive_design', 1998, #232 ) ;
#234 = APPLICATION_PROTOCOL_DEFINITION ( 'draft international standard', 'automotive_design', 1998, #220 ) ;
#235 = PRODUCT ( 'Axe dahon', 'Axe dahon', '', ( #229 ) ) ;
#236 = UNCERTAINTY_MEASURE_WITH_UNIT (LENGTH_MEASURE( 1.000000000000000100E-005 ), #182, 'distance_accuracy_value', 'NONE');
#237 = UNCERTAINTY_MEASURE_WITH_UNIT (LENGTH_MEASURE( 1.000000000000000100E-005 ), #172, 'distance_accuracy_value', 'NONE');
#238 = UNCERTAINTY_MEASURE_WITH_UNIT (LENGTH_MEASURE( 1.000000000000000100E-005 ), #228, 'distance_accuracy_value', 'NONE');
#239 = ADVANCED_BREP_SHAPE_REPRESENTATION ( 'Axe dahon', ( #240, #36 ), #119 ) ;
#240 = MANIFOLD_SOLID_BREP ( 'Chanfrein1', #43 ) ;
ENDSEC;
END-ISO-10303-21;
