ISO-10303-21;
HEADER;
FILE_DESCRIPTION((''),'2;1');
FILE_NAME('CAO_0000113918','2023-04-17T',('roye'),(''),
'CREO PARAMETRIC BY PTC INC, 2015290','CREO PARAMETRIC BY PTC INC, 2015290','');
FILE_SCHEMA(('CONFIG_CONTROL_DESIGN'));
ENDSEC;
DATA;
#2=CARTESIAN_POINT('',(0.E0,0.E0,0.E0));
#3=DIRECTION('',(1.E0,0.E0,0.E0));
#4=DIRECTION('',(0.E0,1.E0,0.E0));
#5=AXIS2_PLACEMENT_3D('',#2,#3,#4);
#7=CARTESIAN_POINT('',(0.E0,0.E0,0.E0));
#8=DIRECTION('',(-1.E0,0.E0,0.E0));
#9=DIRECTION('',(0.E0,1.E0,0.E0));
#10=AXIS2_PLACEMENT_3D('',#7,#8,#9);
#12=CARTESIAN_POINT('',(0.E0,0.E0,0.E0));
#13=DIRECTION('',(1.E0,0.E0,0.E0));
#14=DIRECTION('',(0.E0,-1.E0,0.E0));
#15=AXIS2_PLACEMENT_3D('',#12,#13,#14);
#17=CARTESIAN_POINT('',(0.E0,0.E0,0.E0));
#18=DIRECTION('',(1.E0,0.E0,0.E0));
#19=DIRECTION('',(0.E0,1.E0,0.E0));
#20=AXIS2_PLACEMENT_3D('',#17,#18,#19);
#22=DIRECTION('',(1.E0,0.E0,0.E0));
#23=VECTOR('',#22,5.E-1);
#24=CARTESIAN_POINT('',(-5.E-1,5.825E0,0.E0));
#25=LINE('',#24,#23);
#26=DIRECTION('',(1.E0,0.E0,0.E0));
#27=VECTOR('',#26,5.E-1);
#28=CARTESIAN_POINT('',(-5.E-1,-5.825E0,0.E0));
#29=LINE('',#28,#27);
#30=CARTESIAN_POINT('',(-5.E-1,0.E0,0.E0));
#31=DIRECTION('',(1.E0,0.E0,0.E0));
#32=DIRECTION('',(0.E0,1.E0,0.E0));
#33=AXIS2_PLACEMENT_3D('',#30,#31,#32);
#35=CARTESIAN_POINT('',(-5.E-1,0.E0,0.E0));
#36=DIRECTION('',(-1.E0,0.E0,0.E0));
#37=DIRECTION('',(0.E0,1.E0,0.E0));
#38=AXIS2_PLACEMENT_3D('',#35,#36,#37);
#40=CARTESIAN_POINT('',(-5.E-1,0.E0,0.E0));
#41=DIRECTION('',(-1.E0,0.E0,0.E0));
#42=DIRECTION('',(0.E0,1.E0,0.E0));
#43=AXIS2_PLACEMENT_3D('',#40,#41,#42);
#45=CARTESIAN_POINT('',(-5.E-1,0.E0,0.E0));
#46=DIRECTION('',(-1.E0,0.E0,0.E0));
#47=DIRECTION('',(0.E0,-1.E0,0.E0));
#48=AXIS2_PLACEMENT_3D('',#45,#46,#47);
#50=CARTESIAN_POINT('',(-1.5E0,5.575E0,4.271583087245E-13));
#51=DIRECTION('',(0.E0,7.661926648694E-14,-1.E0));
#52=DIRECTION('',(1.E0,-5.151434834261E-14,0.E0));
#53=AXIS2_PLACEMENT_3D('',#50,#51,#52);
#55=CARTESIAN_POINT('',(-1.5E0,-5.575E0,-4.26617075E-13));
#56=DIRECTION('',(0.E0,-7.652038724881E-14,1.E0));
#57=DIRECTION('',(1.E0,5.062616992291E-14,0.E0));
#58=AXIS2_PLACEMENT_3D('',#55,#56,#57);
#60=CARTESIAN_POINT('',(-1.5E0,0.E0,0.E0));
#61=DIRECTION('',(-1.E0,0.E0,0.E0));
#62=DIRECTION('',(0.E0,-1.E0,0.E0));
#63=AXIS2_PLACEMENT_3D('',#60,#61,#62);
#65=DIRECTION('',(1.E0,0.E0,6.402768832340E-14));
#66=VECTOR('',#65,1.65E1);
#67=CARTESIAN_POINT('',(-1.8E1,-4.575E0,0.E0));
#68=LINE('',#67,#66);
#69=CARTESIAN_POINT('',(-1.8E1,0.E0,0.E0));
#70=DIRECTION('',(1.E0,0.E0,0.E0));
#71=DIRECTION('',(0.E0,1.E0,0.E0));
#72=AXIS2_PLACEMENT_3D('',#69,#70,#71);
#74=DIRECTION('',(1.E0,0.E0,-6.401825308165E-14));
#75=VECTOR('',#74,1.65E1);
#76=CARTESIAN_POINT('',(-1.8E1,4.575E0,0.E0));
#77=LINE('',#76,#75);
#78=CARTESIAN_POINT('',(-1.5E0,0.E0,0.E0));
#79=DIRECTION('',(-1.E0,0.E0,0.E0));
#80=DIRECTION('',(0.E0,1.E0,0.E0));
#81=AXIS2_PLACEMENT_3D('',#78,#79,#80);
#83=CARTESIAN_POINT('',(-1.8E1,0.E0,0.E0));
#84=DIRECTION('',(-1.E0,0.E0,0.E0));
#85=DIRECTION('',(0.E0,1.E0,0.E0));
#86=AXIS2_PLACEMENT_3D('',#83,#84,#85);
#88=CARTESIAN_POINT('',(-1.8E1,0.E0,0.E0));
#89=DIRECTION('',(1.E0,0.E0,0.E0));
#90=DIRECTION('',(0.E0,1.E0,0.E0));
#91=AXIS2_PLACEMENT_3D('',#88,#89,#90);
#93=CARTESIAN_POINT('',(-1.8E1,0.E0,0.E0));
#94=DIRECTION('',(-1.E0,0.E0,0.E0));
#95=DIRECTION('',(0.E0,1.E0,0.E0));
#96=AXIS2_PLACEMENT_3D('',#93,#94,#95);
#98=CARTESIAN_POINT('',(-1.5E0,0.E0,0.E0));
#99=DIRECTION('',(1.E0,0.E0,0.E0));
#100=DIRECTION('',(0.E0,1.E0,0.E0));
#101=AXIS2_PLACEMENT_3D('',#98,#99,#100);
#103=DIRECTION('',(-1.E0,0.E0,-1.051231350552E-14));
#104=VECTOR('',#103,1.65E1);
#105=CARTESIAN_POINT('',(-1.5E0,4.075E0,1.731204771273E-13));
#106=LINE('',#105,#104);
#107=DIRECTION('',(-1.E0,0.E0,1.050475223930E-14));
#108=VECTOR('',#107,1.65E1);
#109=CARTESIAN_POINT('',(-1.5E0,-4.075E0,-1.729957162346E-13));
#110=LINE('',#109,#108);
#111=CARTESIAN_POINT('',(-1.5E0,5.575E0,-7.564240900315E-12));
#112=DIRECTION('',(0.E0,1.356813966735E-12,1.E0));
#113=DIRECTION('',(0.E0,-1.E0,1.356813966735E-12));
#114=AXIS2_PLACEMENT_3D('',#111,#112,#113);
#116=CARTESIAN_POINT('',(-1.5E0,-5.575E0,7.564157633588E-12));
#117=DIRECTION('',(0.E0,-1.356798354224E-12,-1.E0));
#118=DIRECTION('',(0.E0,1.E0,-1.356798354224E-12));
#119=AXIS2_PLACEMENT_3D('',#116,#117,#118);
#121=CARTESIAN_POINT('',(-1.5E0,0.E0,0.E0));
#122=DIRECTION('',(1.E0,0.E0,0.E0));
#123=DIRECTION('',(0.E0,-1.E0,0.E0));
#124=AXIS2_PLACEMENT_3D('',#121,#122,#123);
#126=CARTESIAN_POINT('',(-5.E-1,5.825E0,0.E0));
#127=CARTESIAN_POINT('',(0.E0,5.825E0,0.E0));
#128=VERTEX_POINT('',#126);
#129=VERTEX_POINT('',#127);
#130=CARTESIAN_POINT('',(-5.E-1,-5.825E0,0.E0));
#131=CARTESIAN_POINT('',(0.E0,-5.825E0,0.E0));
#132=VERTEX_POINT('',#130);
#133=VERTEX_POINT('',#131);
#134=CARTESIAN_POINT('',(-1.8E1,4.075E0,0.E0));
#135=CARTESIAN_POINT('',(-1.8E1,-4.075E0,0.E0));
#136=VERTEX_POINT('',#134);
#137=VERTEX_POINT('',#135);
#138=CARTESIAN_POINT('',(-1.8E1,4.575E0,0.E0));
#139=CARTESIAN_POINT('',(-1.8E1,-4.575E0,0.E0));
#140=VERTEX_POINT('',#138);
#141=VERTEX_POINT('',#139);
#142=CARTESIAN_POINT('',(-5.E-1,5.575E0,0.E0));
#143=CARTESIAN_POINT('',(-5.E-1,-5.575E0,0.E0));
#144=VERTEX_POINT('',#142);
#145=VERTEX_POINT('',#143);
#146=CARTESIAN_POINT('',(-1.5E0,4.575E0,0.E0));
#147=CARTESIAN_POINT('',(-1.5E0,-4.575E0,0.E0));
#148=VERTEX_POINT('',#146);
#149=VERTEX_POINT('',#147);
#150=CARTESIAN_POINT('',(-1.5E0,-4.075E0,0.E0));
#151=CARTESIAN_POINT('',(-1.5E0,4.075E0,0.E0));
#152=VERTEX_POINT('',#150);
#153=VERTEX_POINT('',#151);
#154=CARTESIAN_POINT('',(0.E0,-5.575E0,0.E0));
#155=CARTESIAN_POINT('',(0.E0,5.575E0,0.E0));
#156=VERTEX_POINT('',#154);
#157=VERTEX_POINT('',#155);
#158=CARTESIAN_POINT('',(0.E0,0.E0,0.E0));
#159=DIRECTION('',(-1.E0,0.E0,0.E0));
#160=DIRECTION('',(0.E0,-1.E0,0.E0));
#161=AXIS2_PLACEMENT_3D('',#158,#159,#160);
#162=PLANE('',#161);
#164=ORIENTED_EDGE('',*,*,#163,.F.);
#166=ORIENTED_EDGE('',*,*,#165,.T.);
#167=EDGE_LOOP('',(#164,#166));
#168=FACE_OUTER_BOUND('',#167,.F.);
#170=ORIENTED_EDGE('',*,*,#169,.T.);
#172=ORIENTED_EDGE('',*,*,#171,.T.);
#173=EDGE_LOOP('',(#170,#172));
#174=FACE_BOUND('',#173,.F.);
#175=ADVANCED_FACE('',(#168,#174),#162,.F.);
#176=CARTESIAN_POINT('',(9.E-1,0.E0,0.E0));
#177=DIRECTION('',(-1.E0,0.E0,0.E0));
#178=DIRECTION('',(0.E0,-1.E0,0.E0));
#179=AXIS2_PLACEMENT_3D('',#176,#177,#178);
#180=CYLINDRICAL_SURFACE('',#179,5.825E0);
#182=ORIENTED_EDGE('',*,*,#181,.T.);
#183=ORIENTED_EDGE('',*,*,#163,.T.);
#185=ORIENTED_EDGE('',*,*,#184,.F.);
#187=ORIENTED_EDGE('',*,*,#186,.F.);
#188=EDGE_LOOP('',(#182,#183,#185,#187));
#189=FACE_OUTER_BOUND('',#188,.F.);
#190=ADVANCED_FACE('',(#189),#180,.T.);
#191=CARTESIAN_POINT('',(9.E-1,0.E0,0.E0));
#192=DIRECTION('',(-1.E0,0.E0,0.E0));
#193=DIRECTION('',(0.E0,-1.E0,0.E0));
#194=AXIS2_PLACEMENT_3D('',#191,#192,#193);
#195=CYLINDRICAL_SURFACE('',#194,5.825E0);
#196=ORIENTED_EDGE('',*,*,#181,.F.);
#198=ORIENTED_EDGE('',*,*,#197,.T.);
#199=ORIENTED_EDGE('',*,*,#184,.T.);
#200=ORIENTED_EDGE('',*,*,#165,.F.);
#201=EDGE_LOOP('',(#196,#198,#199,#200));
#202=FACE_OUTER_BOUND('',#201,.F.);
#203=ADVANCED_FACE('',(#202),#195,.T.);
#204=CARTESIAN_POINT('',(-5.E-1,0.E0,0.E0));
#205=DIRECTION('',(-1.E0,0.E0,0.E0));
#206=DIRECTION('',(0.E0,-1.E0,0.E0));
#207=AXIS2_PLACEMENT_3D('',#204,#205,#206);
#208=PLANE('',#207);
#209=ORIENTED_EDGE('',*,*,#197,.F.);
#210=ORIENTED_EDGE('',*,*,#186,.T.);
#211=EDGE_LOOP('',(#209,#210));
#212=FACE_OUTER_BOUND('',#211,.F.);
#214=ORIENTED_EDGE('',*,*,#213,.T.);
#216=ORIENTED_EDGE('',*,*,#215,.T.);
#217=EDGE_LOOP('',(#214,#216));
#218=FACE_BOUND('',#217,.F.);
#219=ADVANCED_FACE('',(#212,#218),#208,.T.);
#220=CARTESIAN_POINT('',(-1.5E0,0.E0,0.E0));
#221=DIRECTION('',(-1.E0,0.E0,0.E0));
#222=DIRECTION('',(0.E0,9.999663575735E-1,8.202665490746E-3));
#223=AXIS2_PLACEMENT_3D('',#220,#221,#222);
#224=TOROIDAL_SURFACE('',#223,5.575E0,1.E0);
#225=ORIENTED_EDGE('',*,*,#213,.F.);
#227=ORIENTED_EDGE('',*,*,#226,.T.);
#229=ORIENTED_EDGE('',*,*,#228,.T.);
#231=ORIENTED_EDGE('',*,*,#230,.F.);
#232=EDGE_LOOP('',(#225,#227,#229,#231));
#233=FACE_OUTER_BOUND('',#232,.F.);
#234=ADVANCED_FACE('',(#233),#224,.F.);
#235=CARTESIAN_POINT('',(-1.5E0,0.E0,0.E0));
#236=DIRECTION('',(-1.E0,0.E0,0.E0));
#237=DIRECTION('',(0.E0,-9.999663575735E-1,-8.202665490746E-3));
#238=AXIS2_PLACEMENT_3D('',#235,#236,#237);
#239=TOROIDAL_SURFACE('',#238,5.575E0,1.E0);
#240=ORIENTED_EDGE('',*,*,#215,.F.);
#241=ORIENTED_EDGE('',*,*,#230,.T.);
#243=ORIENTED_EDGE('',*,*,#242,.T.);
#244=ORIENTED_EDGE('',*,*,#226,.F.);
#245=EDGE_LOOP('',(#240,#241,#243,#244));
#246=FACE_OUTER_BOUND('',#245,.F.);
#247=ADVANCED_FACE('',(#246),#239,.F.);
#248=CARTESIAN_POINT('',(9.E-1,0.E0,0.E0));
#249=DIRECTION('',(-1.E0,0.E0,0.E0));
#250=DIRECTION('',(0.E0,-1.E0,0.E0));
#251=AXIS2_PLACEMENT_3D('',#248,#249,#250);
#252=CYLINDRICAL_SURFACE('',#251,4.575E0);
#253=ORIENTED_EDGE('',*,*,#242,.F.);
#255=ORIENTED_EDGE('',*,*,#254,.F.);
#257=ORIENTED_EDGE('',*,*,#256,.F.);
#259=ORIENTED_EDGE('',*,*,#258,.T.);
#260=EDGE_LOOP('',(#253,#255,#257,#259));
#261=FACE_OUTER_BOUND('',#260,.F.);
#262=ADVANCED_FACE('',(#261),#252,.T.);
#263=CARTESIAN_POINT('',(9.E-1,0.E0,0.E0));
#264=DIRECTION('',(-1.E0,0.E0,0.E0));
#265=DIRECTION('',(0.E0,-1.E0,0.E0));
#266=AXIS2_PLACEMENT_3D('',#263,#264,#265);
#267=CYLINDRICAL_SURFACE('',#266,4.575E0);
#268=ORIENTED_EDGE('',*,*,#228,.F.);
#269=ORIENTED_EDGE('',*,*,#258,.F.);
#271=ORIENTED_EDGE('',*,*,#270,.T.);
#272=ORIENTED_EDGE('',*,*,#254,.T.);
#273=EDGE_LOOP('',(#268,#269,#271,#272));
#274=FACE_OUTER_BOUND('',#273,.F.);
#275=ADVANCED_FACE('',(#274),#267,.T.);
#276=CARTESIAN_POINT('',(-1.8E1,0.E0,0.E0));
#277=DIRECTION('',(-1.E0,0.E0,0.E0));
#278=DIRECTION('',(0.E0,-1.E0,0.E0));
#279=AXIS2_PLACEMENT_3D('',#276,#277,#278);
#280=PLANE('',#279);
#281=ORIENTED_EDGE('',*,*,#270,.F.);
#282=ORIENTED_EDGE('',*,*,#256,.T.);
#283=EDGE_LOOP('',(#281,#282));
#284=FACE_OUTER_BOUND('',#283,.F.);
#286=ORIENTED_EDGE('',*,*,#285,.F.);
#288=ORIENTED_EDGE('',*,*,#287,.T.);
#289=EDGE_LOOP('',(#286,#288));
#290=FACE_BOUND('',#289,.F.);
#291=ADVANCED_FACE('',(#284,#290),#280,.T.);
#292=CARTESIAN_POINT('',(9.E-1,0.E0,0.E0));
#293=DIRECTION('',(-1.E0,0.E0,0.E0));
#294=DIRECTION('',(0.E0,-1.E0,0.E0));
#295=AXIS2_PLACEMENT_3D('',#292,#293,#294);
#296=CYLINDRICAL_SURFACE('',#295,4.075E0);
#298=ORIENTED_EDGE('',*,*,#297,.F.);
#300=ORIENTED_EDGE('',*,*,#299,.T.);
#301=ORIENTED_EDGE('',*,*,#285,.T.);
#303=ORIENTED_EDGE('',*,*,#302,.F.);
#304=EDGE_LOOP('',(#298,#300,#301,#303));
#305=FACE_OUTER_BOUND('',#304,.F.);
#306=ADVANCED_FACE('',(#305),#296,.F.);
#307=CARTESIAN_POINT('',(-1.5E0,0.E0,0.E0));
#308=DIRECTION('',(-1.E0,0.E0,0.E0));
#309=DIRECTION('',(0.E0,9.999607954606E-1,-8.854803318938E-3));
#310=AXIS2_PLACEMENT_3D('',#307,#308,#309);
#311=TOROIDAL_SURFACE('',#310,5.575E0,1.5E0);
#312=ORIENTED_EDGE('',*,*,#297,.T.);
#314=ORIENTED_EDGE('',*,*,#313,.T.);
#315=ORIENTED_EDGE('',*,*,#171,.F.);
#317=ORIENTED_EDGE('',*,*,#316,.F.);
#318=EDGE_LOOP('',(#312,#314,#315,#317));
#319=FACE_OUTER_BOUND('',#318,.F.);
#320=ADVANCED_FACE('',(#319),#311,.T.);
#321=CARTESIAN_POINT('',(-1.5E0,0.E0,0.E0));
#322=DIRECTION('',(-1.E0,0.E0,0.E0));
#323=DIRECTION('',(0.E0,-9.999607954606E-1,8.854803318938E-3));
#324=AXIS2_PLACEMENT_3D('',#321,#322,#323);
#325=TOROIDAL_SURFACE('',#324,5.575E0,1.5E0);
#327=ORIENTED_EDGE('',*,*,#326,.T.);
#328=ORIENTED_EDGE('',*,*,#316,.T.);
#329=ORIENTED_EDGE('',*,*,#169,.F.);
#330=ORIENTED_EDGE('',*,*,#313,.F.);
#331=EDGE_LOOP('',(#327,#328,#329,#330));
#332=FACE_OUTER_BOUND('',#331,.F.);
#333=ADVANCED_FACE('',(#332),#325,.T.);
#334=CARTESIAN_POINT('',(9.E-1,0.E0,0.E0));
#335=DIRECTION('',(-1.E0,0.E0,0.E0));
#336=DIRECTION('',(0.E0,-1.E0,0.E0));
#337=AXIS2_PLACEMENT_3D('',#334,#335,#336);
#338=CYLINDRICAL_SURFACE('',#337,4.075E0);
#339=ORIENTED_EDGE('',*,*,#326,.F.);
#340=ORIENTED_EDGE('',*,*,#302,.T.);
#341=ORIENTED_EDGE('',*,*,#287,.F.);
#342=ORIENTED_EDGE('',*,*,#299,.F.);
#343=EDGE_LOOP('',(#339,#340,#341,#342));
#344=FACE_OUTER_BOUND('',#343,.F.);
#345=ADVANCED_FACE('',(#344),#338,.F.);
#346=CLOSED_SHELL('',(#175,#190,#203,#219,#234,#247,#262,#275,#291,#306,#320,
#333,#345));
#347=MANIFOLD_SOLID_BREP('',#346);
#349=DIMENSIONAL_EXPONENTS(0.E0,0.E0,0.E0,0.E0,0.E0,0.E0,0.E0);
#351=PLANE_ANGLE_MEASURE_WITH_UNIT(PLANE_ANGLE_MEASURE(1.745329251994E-2),#350);
#352=(CONVERSION_BASED_UNIT('DEGREE',#351)NAMED_UNIT(*)PLANE_ANGLE_UNIT());
#354=UNCERTAINTY_MEASURE_WITH_UNIT(LENGTH_MEASURE(2.440534796650E-3),#348,
'closure',
'Maximum model space distance between geometric entities at asserted connectivities');
#355=(GEOMETRIC_REPRESENTATION_CONTEXT(3)GLOBAL_UNCERTAINTY_ASSIGNED_CONTEXT((
#354))GLOBAL_UNIT_ASSIGNED_CONTEXT((#348,#352,#353))REPRESENTATION_CONTEXT
('ID1','3'));
#357=APPLICATION_CONTEXT(
'CONFIGURATION CONTROLLED 3D DESIGNS OF MECHANICAL PARTS AND ASSEMBLIES');
#358=APPLICATION_PROTOCOL_DEFINITION('international standard',
'config_control_design',1994,#357);
#359=DESIGN_CONTEXT('',#357,'design');
#360=MECHANICAL_CONTEXT('',#357,'mechanical');
#361=PRODUCT('CAO_0000113918','CAO_0000113918','NOT SPECIFIED',(#360));
#362=PRODUCT_DEFINITION_FORMATION_WITH_SPECIFIED_SOURCE('1','LAST_VERSION',#361,
.MADE.);
#366=PRODUCT_CATEGORY('part','');
#367=PRODUCT_RELATED_PRODUCT_CATEGORY('detail','',(#361));
#368=PRODUCT_CATEGORY_RELATIONSHIP('','',#366,#367);
#369=SECURITY_CLASSIFICATION_LEVEL('unclassified');
#370=SECURITY_CLASSIFICATION('','',#369);
#371=CC_DESIGN_SECURITY_CLASSIFICATION(#370,(#362));
#372=APPROVAL_STATUS('approved');
#373=APPROVAL(#372,'');
#374=CC_DESIGN_APPROVAL(#373,(#370,#362,#363));
#375=CALENDAR_DATE(123,17,4);
#376=COORDINATED_UNIVERSAL_TIME_OFFSET(2,0,.AHEAD.);
#377=LOCAL_TIME(13,27,5.7E1,#376);
#378=DATE_AND_TIME(#375,#377);
#379=APPROVAL_DATE_TIME(#378,#373);
#380=DATE_TIME_ROLE('creation_date');
#381=CC_DESIGN_DATE_AND_TIME_ASSIGNMENT(#378,#380,(#363));
#382=DATE_TIME_ROLE('classification_date');
#383=CC_DESIGN_DATE_AND_TIME_ASSIGNMENT(#378,#382,(#370));
#384=PERSON('UNSPECIFIED','UNSPECIFIED',$,$,$,$);
#385=ORGANIZATION('UNSPECIFIED','UNSPECIFIED','UNSPECIFIED');
#386=PERSON_AND_ORGANIZATION(#384,#385);
#387=APPROVAL_ROLE('approver');
#388=APPROVAL_PERSON_ORGANIZATION(#386,#373,#387);
#389=PERSON_AND_ORGANIZATION_ROLE('creator');
#390=CC_DESIGN_PERSON_AND_ORGANIZATION_ASSIGNMENT(#386,#389,(#362,#363));
#391=PERSON_AND_ORGANIZATION_ROLE('design_supplier');
#392=CC_DESIGN_PERSON_AND_ORGANIZATION_ASSIGNMENT(#386,#391,(#362));
#393=PERSON_AND_ORGANIZATION_ROLE('classification_officer');
#394=CC_DESIGN_PERSON_AND_ORGANIZATION_ASSIGNMENT(#386,#393,(#370));
#395=PERSON_AND_ORGANIZATION_ROLE('design_owner');
#396=CC_DESIGN_PERSON_AND_ORGANIZATION_ASSIGNMENT(#386,#395,(#361));
#6=CIRCLE('',#5,5.825E0);
#11=CIRCLE('',#10,5.825E0);
#16=CIRCLE('',#15,5.575E0);
#21=CIRCLE('',#20,5.575E0);
#34=CIRCLE('',#33,5.825E0);
#39=CIRCLE('',#38,5.825E0);
#44=CIRCLE('',#43,5.575E0);
#49=CIRCLE('',#48,5.575E0);
#54=CIRCLE('',#53,1.E0);
#59=CIRCLE('',#58,1.E0);
#64=CIRCLE('',#63,4.575E0);
#73=CIRCLE('',#72,4.575E0);
#82=CIRCLE('',#81,4.575E0);
#87=CIRCLE('',#86,4.575E0);
#92=CIRCLE('',#91,4.075E0);
#97=CIRCLE('',#96,4.075E0);
#102=CIRCLE('',#101,4.075E0);
#115=CIRCLE('',#114,1.5E0);
#120=CIRCLE('',#119,1.5E0);
#125=CIRCLE('',#124,4.075E0);
#163=EDGE_CURVE('',#129,#133,#6,.T.);
#165=EDGE_CURVE('',#129,#133,#11,.T.);
#169=EDGE_CURVE('',#156,#157,#16,.T.);
#171=EDGE_CURVE('',#157,#156,#21,.T.);
#181=EDGE_CURVE('',#128,#129,#25,.T.);
#184=EDGE_CURVE('',#132,#133,#29,.T.);
#186=EDGE_CURVE('',#128,#132,#34,.T.);
#197=EDGE_CURVE('',#128,#132,#39,.T.);
#213=EDGE_CURVE('',#144,#145,#44,.T.);
#215=EDGE_CURVE('',#145,#144,#49,.T.);
#226=EDGE_CURVE('',#144,#148,#54,.T.);
#228=EDGE_CURVE('',#148,#149,#82,.T.);
#230=EDGE_CURVE('',#145,#149,#59,.T.);
#242=EDGE_CURVE('',#149,#148,#64,.T.);
#254=EDGE_CURVE('',#141,#149,#68,.T.);
#256=EDGE_CURVE('',#140,#141,#73,.T.);
#258=EDGE_CURVE('',#140,#148,#77,.T.);
#270=EDGE_CURVE('',#140,#141,#87,.T.);
#285=EDGE_CURVE('',#136,#137,#92,.T.);
#287=EDGE_CURVE('',#136,#137,#97,.T.);
#297=EDGE_CURVE('',#153,#152,#102,.T.);
#299=EDGE_CURVE('',#153,#136,#106,.T.);
#302=EDGE_CURVE('',#152,#137,#110,.T.);
#313=EDGE_CURVE('',#152,#156,#120,.T.);
#316=EDGE_CURVE('',#153,#157,#115,.T.);
#326=EDGE_CURVE('',#152,#153,#125,.T.);
#348=(LENGTH_UNIT()NAMED_UNIT(*)SI_UNIT(.MILLI.,.METRE.));
#350=(NAMED_UNIT(*)PLANE_ANGLE_UNIT()SI_UNIT($,.RADIAN.));
#353=(NAMED_UNIT(*)SI_UNIT($,.STERADIAN.)SOLID_ANGLE_UNIT());
#356=ADVANCED_BREP_SHAPE_REPRESENTATION('',(#347),#355);
#363=PRODUCT_DEFINITION('design','',#362,#359);
#364=PRODUCT_DEFINITION_SHAPE('','SHAPE FOR CAO_0000113918.',#363);
#365=SHAPE_DEFINITION_REPRESENTATION(#364,#356);
ENDSEC;
END-ISO-10303-21;
