ISO-10303-21;
HEADER;
/* Generated by software containing ST-Developer
 * from STEP Tools, Inc. (www.steptools.com) 
 */

FILE_DESCRIPTION(
/* description */ (''),
/* implementation_level */ '2;1');

FILE_NAME(
/* name */ 'C:\\Users\\liegu\\Documents\\adaptateur arbre moteur.stp',
/* time_stamp */ '2023-04-21T18:45:04+02:00',
/* author */ ('liegu'),
/* organization */ (''),
/* preprocessor_version */ 'ST-DEVELOPER v19',
/* originating_system */ 'Autodesk Inventor 2023',
/* authorisation */ '');

FILE_SCHEMA (('AUTOMOTIVE_DESIGN { 1 0 10303 214 3 1 1 }'));
ENDSEC;

DATA;
#10=MECHANICAL_DESIGN_GEOMETRIC_PRESENTATION_REPRESENTATION('',(#16),#268);
#11=GEOMETRICALLY_BOUNDED_WIREFRAME_SHAPE_REPRESENTATION('',(#12),#267);
#12=GEOMETRIC_CURVE_SET('Esquisse3',(#264));
#13=SHAPE_REPRESENTATION_RELATIONSHIP('SRR','None',#275,#15);
#14=SHAPE_REPRESENTATION_RELATIONSHIP('SRR','None',#275,#11);
#15=ADVANCED_BREP_SHAPE_REPRESENTATION('',(#17),#267);
#16=STYLED_ITEM('',(#284),#17);
#17=MANIFOLD_SOLID_BREP('Solide1',#146);
#18=CYLINDRICAL_SURFACE('',#178,4.);
#19=CYLINDRICAL_SURFACE('',#180,6.);
#20=CIRCLE('',#172,6.);
#21=CIRCLE('',#173,4.);
#22=CIRCLE('',#174,4.);
#23=CIRCLE('',#177,4.);
#24=CIRCLE('',#179,4.);
#25=CIRCLE('',#181,6.);
#26=FACE_OUTER_BOUND('',#34,.T.);
#27=FACE_OUTER_BOUND('',#35,.T.);
#28=FACE_OUTER_BOUND('',#36,.T.);
#29=FACE_OUTER_BOUND('',#37,.T.);
#30=FACE_OUTER_BOUND('',#38,.T.);
#31=FACE_OUTER_BOUND('',#39,.T.);
#32=FACE_OUTER_BOUND('',#40,.T.);
#33=FACE_OUTER_BOUND('',#41,.T.);
#34=EDGE_LOOP('',(#96,#97,#98,#99));
#35=EDGE_LOOP('',(#100,#101,#102,#103));
#36=EDGE_LOOP('',(#104,#105,#106,#107,#108,#109));
#37=EDGE_LOOP('',(#110,#111,#112,#113));
#38=EDGE_LOOP('',(#114,#115));
#39=EDGE_LOOP('',(#116,#117,#118,#119,#120,#121,#122,#123));
#40=EDGE_LOOP('',(#124,#125,#126,#127));
#41=EDGE_LOOP('',(#128,#129,#130,#131));
#42=LINE('',#229,#54);
#43=LINE('',#231,#55);
#44=LINE('',#233,#56);
#45=LINE('',#234,#57);
#46=LINE('',#238,#58);
#47=LINE('',#240,#59);
#48=LINE('',#242,#60);
#49=LINE('',#243,#61);
#50=LINE('',#249,#62);
#51=LINE('',#253,#63);
#52=LINE('',#255,#64);
#53=LINE('',#256,#65);
#54=VECTOR('',#187,10.);
#55=VECTOR('',#188,10.);
#56=VECTOR('',#189,10.);
#57=VECTOR('',#190,10.);
#58=VECTOR('',#193,10.);
#59=VECTOR('',#194,10.);
#60=VECTOR('',#195,10.);
#61=VECTOR('',#196,10.);
#62=VECTOR('',#203,10.);
#63=VECTOR('',#208,10.);
#64=VECTOR('',#209,10.);
#65=VECTOR('',#210,10.);
#66=VERTEX_POINT('',#227);
#67=VERTEX_POINT('',#228);
#68=VERTEX_POINT('',#230);
#69=VERTEX_POINT('',#232);
#70=VERTEX_POINT('',#236);
#71=VERTEX_POINT('',#237);
#72=VERTEX_POINT('',#239);
#73=VERTEX_POINT('',#241);
#74=VERTEX_POINT('',#246);
#75=VERTEX_POINT('',#248);
#76=VERTEX_POINT('',#252);
#77=VERTEX_POINT('',#254);
#78=EDGE_CURVE('',#66,#67,#42,.T.);
#79=EDGE_CURVE('',#68,#66,#43,.T.);
#80=EDGE_CURVE('',#69,#68,#44,.T.);
#81=EDGE_CURVE('',#67,#69,#45,.T.);
#82=EDGE_CURVE('',#70,#71,#46,.T.);
#83=EDGE_CURVE('',#72,#70,#47,.T.);
#84=EDGE_CURVE('',#73,#72,#48,.T.);
#85=EDGE_CURVE('',#71,#73,#49,.T.);
#86=EDGE_CURVE('',#67,#70,#20,.T.);
#87=EDGE_CURVE('',#71,#74,#21,.T.);
#88=EDGE_CURVE('',#74,#75,#50,.T.);
#89=EDGE_CURVE('',#75,#66,#22,.T.);
#90=EDGE_CURVE('',#76,#74,#51,.T.);
#91=EDGE_CURVE('',#77,#76,#52,.T.);
#92=EDGE_CURVE('',#75,#77,#53,.T.);
#93=EDGE_CURVE('',#77,#76,#23,.T.);
#94=EDGE_CURVE('',#73,#68,#24,.T.);
#95=EDGE_CURVE('',#69,#72,#25,.T.);
#96=ORIENTED_EDGE('',*,*,#78,.F.);
#97=ORIENTED_EDGE('',*,*,#79,.F.);
#98=ORIENTED_EDGE('',*,*,#80,.F.);
#99=ORIENTED_EDGE('',*,*,#81,.F.);
#100=ORIENTED_EDGE('',*,*,#82,.F.);
#101=ORIENTED_EDGE('',*,*,#83,.F.);
#102=ORIENTED_EDGE('',*,*,#84,.F.);
#103=ORIENTED_EDGE('',*,*,#85,.F.);
#104=ORIENTED_EDGE('',*,*,#78,.T.);
#105=ORIENTED_EDGE('',*,*,#86,.T.);
#106=ORIENTED_EDGE('',*,*,#82,.T.);
#107=ORIENTED_EDGE('',*,*,#87,.T.);
#108=ORIENTED_EDGE('',*,*,#88,.T.);
#109=ORIENTED_EDGE('',*,*,#89,.T.);
#110=ORIENTED_EDGE('',*,*,#88,.F.);
#111=ORIENTED_EDGE('',*,*,#90,.F.);
#112=ORIENTED_EDGE('',*,*,#91,.F.);
#113=ORIENTED_EDGE('',*,*,#92,.F.);
#114=ORIENTED_EDGE('',*,*,#93,.F.);
#115=ORIENTED_EDGE('',*,*,#91,.T.);
#116=ORIENTED_EDGE('',*,*,#79,.T.);
#117=ORIENTED_EDGE('',*,*,#89,.F.);
#118=ORIENTED_EDGE('',*,*,#92,.T.);
#119=ORIENTED_EDGE('',*,*,#93,.T.);
#120=ORIENTED_EDGE('',*,*,#90,.T.);
#121=ORIENTED_EDGE('',*,*,#87,.F.);
#122=ORIENTED_EDGE('',*,*,#85,.T.);
#123=ORIENTED_EDGE('',*,*,#94,.T.);
#124=ORIENTED_EDGE('',*,*,#81,.T.);
#125=ORIENTED_EDGE('',*,*,#95,.T.);
#126=ORIENTED_EDGE('',*,*,#83,.T.);
#127=ORIENTED_EDGE('',*,*,#86,.F.);
#128=ORIENTED_EDGE('',*,*,#80,.T.);
#129=ORIENTED_EDGE('',*,*,#94,.F.);
#130=ORIENTED_EDGE('',*,*,#84,.T.);
#131=ORIENTED_EDGE('',*,*,#95,.F.);
#132=PLANE('',#169);
#133=PLANE('',#170);
#134=PLANE('',#171);
#135=PLANE('',#175);
#136=PLANE('',#176);
#137=PLANE('',#182);
#138=ADVANCED_FACE('',(#26),#132,.F.);
#139=ADVANCED_FACE('',(#27),#133,.F.);
#140=ADVANCED_FACE('',(#28),#134,.T.);
#141=ADVANCED_FACE('',(#29),#135,.T.);
#142=ADVANCED_FACE('',(#30),#136,.F.);
#143=ADVANCED_FACE('',(#31),#18,.F.);
#144=ADVANCED_FACE('',(#32),#19,.T.);
#145=ADVANCED_FACE('',(#33),#137,.F.);
#146=CLOSED_SHELL('',(#138,#139,#140,#141,#142,#143,#144,#145));
#147=DERIVED_UNIT_ELEMENT(#150,1.);
#148=DERIVED_UNIT_ELEMENT(#270,-3.);
#149=DIMENSIONAL_EXPONENTS(1.,0.,0.,0.,0.,0.,0.);
#150=(
CONVERSION_BASED_UNIT('gram',#152)
MASS_UNIT()
NAMED_UNIT(#149)
);
#151=(
MASS_UNIT()
NAMED_UNIT(*)
SI_UNIT(.KILO.,.GRAM.)
);
#152=MASS_MEASURE_WITH_UNIT(MASS_MEASURE(0.001),#151);
#153=DERIVED_UNIT((#147,#148));
#154=MEASURE_REPRESENTATION_ITEM('density measure',
POSITIVE_RATIO_MEASURE(1.),#153);
#155=PROPERTY_DEFINITION_REPRESENTATION(#160,#157);
#156=PROPERTY_DEFINITION_REPRESENTATION(#161,#158);
#157=REPRESENTATION('material name',(#159),#267);
#158=REPRESENTATION('density',(#154),#267);
#159=DESCRIPTIVE_REPRESENTATION_ITEM('G\X\E9n\X\E9rique','G\X\E9n\X\E9
rique');
#160=PROPERTY_DEFINITION('material property','material name',#277);
#161=PROPERTY_DEFINITION('material property','density of part',#277);
#162=DATE_TIME_ROLE('creation_date');
#163=APPLIED_DATE_AND_TIME_ASSIGNMENT(#164,#162,(#277));
#164=DATE_AND_TIME(#165,#166);
#165=CALENDAR_DATE(2023,21,4);
#166=LOCAL_TIME(0,0,0.,#167);
#167=COORDINATED_UNIVERSAL_TIME_OFFSET(0,0,.BEHIND.);
#168=AXIS2_PLACEMENT_3D('placement',#225,#183,#184);
#169=AXIS2_PLACEMENT_3D('',#226,#185,#186);
#170=AXIS2_PLACEMENT_3D('',#235,#191,#192);
#171=AXIS2_PLACEMENT_3D('',#244,#197,#198);
#172=AXIS2_PLACEMENT_3D('',#245,#199,#200);
#173=AXIS2_PLACEMENT_3D('',#247,#201,#202);
#174=AXIS2_PLACEMENT_3D('',#250,#204,#205);
#175=AXIS2_PLACEMENT_3D('',#251,#206,#207);
#176=AXIS2_PLACEMENT_3D('',#257,#211,#212);
#177=AXIS2_PLACEMENT_3D('',#258,#213,#214);
#178=AXIS2_PLACEMENT_3D('',#259,#215,#216);
#179=AXIS2_PLACEMENT_3D('',#260,#217,#218);
#180=AXIS2_PLACEMENT_3D('',#261,#219,#220);
#181=AXIS2_PLACEMENT_3D('',#262,#221,#222);
#182=AXIS2_PLACEMENT_3D('',#263,#223,#224);
#183=DIRECTION('axis',(0.,0.,1.));
#184=DIRECTION('refdir',(1.,0.,0.));
#185=DIRECTION('center_axis',(-1.06856536185987E-16,0.,-1.));
#186=DIRECTION('ref_axis',(1.,0.,-1.06856536185987E-16));
#187=DIRECTION('',(1.,0.,-1.06856536185987E-16));
#188=DIRECTION('',(0.,1.,0.));
#189=DIRECTION('',(-1.,0.,1.06856536185987E-16));
#190=DIRECTION('',(0.,-1.,0.));
#191=DIRECTION('center_axis',(2.13713072371975E-16,0.,1.));
#192=DIRECTION('ref_axis',(-1.,0.,2.13713072371975E-16));
#193=DIRECTION('',(-1.,0.,2.13713072371975E-16));
#194=DIRECTION('',(0.,1.,0.));
#195=DIRECTION('',(1.,0.,-2.13713072371975E-16));
#196=DIRECTION('',(0.,-1.,0.));
#197=DIRECTION('center_axis',(0.,1.,0.));
#198=DIRECTION('ref_axis',(0.,0.,1.));
#199=DIRECTION('center_axis',(0.,1.,0.));
#200=DIRECTION('ref_axis',(-1.,0.,0.));
#201=DIRECTION('center_axis',(0.,-1.,0.));
#202=DIRECTION('ref_axis',(1.,0.,0.));
#203=DIRECTION('',(0.,0.,-1.));
#204=DIRECTION('center_axis',(0.,-1.,0.));
#205=DIRECTION('ref_axis',(1.,0.,0.));
#206=DIRECTION('center_axis',(1.,0.,0.));
#207=DIRECTION('ref_axis',(0.,0.,1.));
#208=DIRECTION('',(0.,1.,0.));
#209=DIRECTION('',(0.,0.,1.));
#210=DIRECTION('',(0.,-1.,0.));
#211=DIRECTION('center_axis',(0.,1.,0.));
#212=DIRECTION('ref_axis',(0.,0.,1.));
#213=DIRECTION('center_axis',(0.,1.,0.));
#214=DIRECTION('ref_axis',(1.,0.,0.));
#215=DIRECTION('center_axis',(0.,1.,0.));
#216=DIRECTION('ref_axis',(-1.,0.,3.21624529935327E-16));
#217=DIRECTION('center_axis',(0.,-1.,0.));
#218=DIRECTION('ref_axis',(1.,0.,0.));
#219=DIRECTION('center_axis',(0.,1.,0.));
#220=DIRECTION('ref_axis',(-1.,0.,0.));
#221=DIRECTION('center_axis',(0.,1.,0.));
#222=DIRECTION('ref_axis',(-1.,0.,0.));
#223=DIRECTION('center_axis',(0.,1.,0.));
#224=DIRECTION('ref_axis',(0.,0.,1.));
#225=CARTESIAN_POINT('',(0.,0.,0.));
#226=CARTESIAN_POINT('Origin',(3.96862696659689,24.,-0.500000000000001));
#227=CARTESIAN_POINT('',(3.96862696659689,24.,-0.500000000000001));
#228=CARTESIAN_POINT('',(5.9791303715507,24.,-0.500000000000001));
#229=CARTESIAN_POINT('',(1.98431348329844,24.,-0.5));
#230=CARTESIAN_POINT('',(3.96862696659689,0.,-0.500000000000001));
#231=CARTESIAN_POINT('',(3.96862696659689,0.,-0.500000000000001));
#232=CARTESIAN_POINT('',(5.9791303715507,0.,-0.500000000000001));
#233=CARTESIAN_POINT('',(1.98431348329844,0.,-0.5));
#234=CARTESIAN_POINT('',(5.9791303715507,0.,-0.500000000000001));
#235=CARTESIAN_POINT('Origin',(5.9791303715507,24.,0.499999999999999));
#236=CARTESIAN_POINT('',(5.9791303715507,24.,0.499999999999999));
#237=CARTESIAN_POINT('',(3.96862696659689,24.,0.499999999999998));
#238=CARTESIAN_POINT('',(2.98956518577535,24.,0.499999999999999));
#239=CARTESIAN_POINT('',(5.9791303715507,0.,0.499999999999999));
#240=CARTESIAN_POINT('',(5.9791303715507,0.,0.499999999999999));
#241=CARTESIAN_POINT('',(3.96862696659689,0.,0.499999999999998));
#242=CARTESIAN_POINT('',(2.98956518577535,0.,0.499999999999999));
#243=CARTESIAN_POINT('',(3.96862696659689,0.,0.499999999999999));
#244=CARTESIAN_POINT('Origin',(0.,24.,0.));
#245=CARTESIAN_POINT('Origin',(0.,24.,0.));
#246=CARTESIAN_POINT('',(-3.,24.,2.64575131106459));
#247=CARTESIAN_POINT('Origin',(0.,24.,0.));
#248=CARTESIAN_POINT('',(-3.,24.,-2.64575131106459));
#249=CARTESIAN_POINT('',(-3.,24.,2.64575131106459));
#250=CARTESIAN_POINT('Origin',(0.,24.,0.));
#251=CARTESIAN_POINT('Origin',(-3.,24.,-2.64575131106459));
#252=CARTESIAN_POINT('',(-3.,15.,2.64575131106459));
#253=CARTESIAN_POINT('',(-3.,0.,2.64575131106459));
#254=CARTESIAN_POINT('',(-3.,15.,-2.64575131106459));
#255=CARTESIAN_POINT('',(-3.,15.,2.64575131106459));
#256=CARTESIAN_POINT('',(-3.,0.,-2.64575131106459));
#257=CARTESIAN_POINT('Origin',(-3.5,15.,0.));
#258=CARTESIAN_POINT('Origin',(0.,15.,0.));
#259=CARTESIAN_POINT('Origin',(0.,0.,0.));
#260=CARTESIAN_POINT('Origin',(0.,0.,0.));
#261=CARTESIAN_POINT('Origin',(0.,0.,0.));
#262=CARTESIAN_POINT('Origin',(0.,0.,0.));
#263=CARTESIAN_POINT('Origin',(0.,0.,0.));
#264=CARTESIAN_POINT('',(-3.,0.,0.));
#265=UNCERTAINTY_MEASURE_WITH_UNIT(LENGTH_MEASURE(0.01),#269,
'DISTANCE_ACCURACY_VALUE',
'Maximum model space distance between geometric entities at asserted c
onnectivities');
#266=UNCERTAINTY_MEASURE_WITH_UNIT(LENGTH_MEASURE(0.01),#269,
'DISTANCE_ACCURACY_VALUE',
'Maximum model space distance between geometric entities at asserted c
onnectivities');
#267=(
GEOMETRIC_REPRESENTATION_CONTEXT(3)
GLOBAL_UNCERTAINTY_ASSIGNED_CONTEXT((#265))
GLOBAL_UNIT_ASSIGNED_CONTEXT((#269,#271,#272))
REPRESENTATION_CONTEXT('','3D')
);
#268=(
GEOMETRIC_REPRESENTATION_CONTEXT(3)
GLOBAL_UNCERTAINTY_ASSIGNED_CONTEXT((#266))
GLOBAL_UNIT_ASSIGNED_CONTEXT((#269,#271,#272))
REPRESENTATION_CONTEXT('','3D')
);
#269=(
LENGTH_UNIT()
NAMED_UNIT(*)
SI_UNIT(.MILLI.,.METRE.)
);
#270=(
LENGTH_UNIT()
NAMED_UNIT(*)
SI_UNIT(.CENTI.,.METRE.)
);
#271=(
NAMED_UNIT(*)
PLANE_ANGLE_UNIT()
SI_UNIT($,.RADIAN.)
);
#272=(
NAMED_UNIT(*)
SI_UNIT($,.STERADIAN.)
SOLID_ANGLE_UNIT()
);
#273=SHAPE_DEFINITION_REPRESENTATION(#274,#275);
#274=PRODUCT_DEFINITION_SHAPE('',$,#277);
#275=SHAPE_REPRESENTATION('',(#168),#267);
#276=PRODUCT_DEFINITION_CONTEXT('part definition',#281,'design');
#277=PRODUCT_DEFINITION('Pi\X\E8ce1','Pi\X\E8ce1',#278,#276);
#278=PRODUCT_DEFINITION_FORMATION('',$,#283);
#279=PRODUCT_RELATED_PRODUCT_CATEGORY('Pi\X\E8ce1','Pi\X\E8ce1',(#283));
#280=APPLICATION_PROTOCOL_DEFINITION('international standard',
'automotive_design',2009,#281);
#281=APPLICATION_CONTEXT(
'Core Data for Automotive Mechanical Design Process');
#282=PRODUCT_CONTEXT('part definition',#281,'mechanical');
#283=PRODUCT('Pi\X\E8ce1','Pi\X\E8ce1',$,(#282));
#284=PRESENTATION_STYLE_ASSIGNMENT((#286));
#285=PRESENTATION_STYLE_ASSIGNMENT((#287));
#286=SURFACE_STYLE_USAGE(.BOTH.,#290);
#287=SURFACE_STYLE_USAGE(.BOTH.,#291);
#288=SURFACE_STYLE_RENDERING_WITH_PROPERTIES($,#298,(#289));
#289=SURFACE_STYLE_TRANSPARENT(0.);
#290=SURFACE_SIDE_STYLE('',(#292,#288));
#291=SURFACE_SIDE_STYLE('',(#293));
#292=SURFACE_STYLE_FILL_AREA(#294);
#293=SURFACE_STYLE_FILL_AREA(#295);
#294=FILL_AREA_STYLE('',(#296));
#295=FILL_AREA_STYLE('',(#297));
#296=FILL_AREA_STYLE_COLOUR('',#298);
#297=FILL_AREA_STYLE_COLOUR('',#299);
#298=COLOUR_RGB('',0.749019607843137,0.749019607843137,0.749019607843137);
#299=COLOUR_RGB('',1.,1.,0.);
ENDSEC;
END-ISO-10303-21;
