ISO-10303-21;
HEADER;
/* Generated by software containing ST-Developer
 * from STEP Tools, Inc. (www.steptools.com) 
 */

FILE_DESCRIPTION(
/* description */ (''),
/* implementation_level */ '2;1');

FILE_NAME(
/* name */ 
'D:/PLASMA/0-ReFlexLab/2 - Labo/1 - Hardware/Forest PUMP V2/Cl\X\E9.st
ep',
/* time_stamp */ '2022-09-30T17:11:45+02:00',
/* author */ (''),
/* organization */ (''),
/* preprocessor_version */ 'ST-DEVELOPER v19',
/* originating_system */ 'Autodesk Translation Framework v11.7.0.108',
/* authorisation */ '');

FILE_SCHEMA (('AUTOMOTIVE_DESIGN { 1 0 10303 214 3 1 1 }'));
ENDSEC;

DATA;
#10=MECHANICAL_DESIGN_GEOMETRIC_PRESENTATION_REPRESENTATION('',(#13),#578);
#11=SHAPE_REPRESENTATION_RELATIONSHIP('SRR','None',#585,#12);
#12=ADVANCED_BREP_SHAPE_REPRESENTATION('',(#14),#577);
#13=STYLED_ITEM('',(#595),#14);
#14=MANIFOLD_SOLID_BREP('Corps1',#314);
#15=FACE_BOUND('',#60,.T.);
#16=FACE_BOUND('',#62,.T.);
#17=FACE_BOUND('',#63,.T.);
#18=FACE_BOUND('',#64,.T.);
#19=FACE_BOUND('',#65,.T.);
#20=FACE_BOUND('',#66,.T.);
#21=FACE_BOUND('',#67,.T.);
#22=FACE_BOUND('',#68,.T.);
#23=FACE_BOUND('',#77,.T.);
#24=FACE_BOUND('',#78,.T.);
#25=FACE_BOUND('',#79,.T.);
#26=FACE_BOUND('',#80,.T.);
#27=FACE_BOUND('',#81,.T.);
#28=FACE_BOUND('',#82,.T.);
#29=FACE_BOUND('',#83,.T.);
#30=FACE_BOUND('',#86,.T.);
#31=PLANE('',#330);
#32=PLANE('',#333);
#33=PLANE('',#334);
#34=PLANE('',#335);
#35=PLANE('',#338);
#36=PLANE('',#361);
#37=FACE_OUTER_BOUND('',#54,.T.);
#38=FACE_OUTER_BOUND('',#55,.T.);
#39=FACE_OUTER_BOUND('',#56,.T.);
#40=FACE_OUTER_BOUND('',#57,.T.);
#41=FACE_OUTER_BOUND('',#58,.T.);
#42=FACE_OUTER_BOUND('',#59,.T.);
#43=FACE_OUTER_BOUND('',#61,.T.);
#44=FACE_OUTER_BOUND('',#69,.T.);
#45=FACE_OUTER_BOUND('',#70,.T.);
#46=FACE_OUTER_BOUND('',#71,.T.);
#47=FACE_OUTER_BOUND('',#72,.T.);
#48=FACE_OUTER_BOUND('',#73,.T.);
#49=FACE_OUTER_BOUND('',#74,.T.);
#50=FACE_OUTER_BOUND('',#75,.T.);
#51=FACE_OUTER_BOUND('',#76,.T.);
#52=FACE_OUTER_BOUND('',#84,.T.);
#53=FACE_OUTER_BOUND('',#85,.T.);
#54=EDGE_LOOP('',(#208,#209,#210,#211));
#55=EDGE_LOOP('',(#212,#213,#214,#215));
#56=EDGE_LOOP('',(#216,#217,#218,#219));
#57=EDGE_LOOP('',(#220,#221,#222,#223));
#58=EDGE_LOOP('',(#224,#225,#226,#227));
#59=EDGE_LOOP('',(#228));
#60=EDGE_LOOP('',(#229));
#61=EDGE_LOOP('',(#230));
#62=EDGE_LOOP('',(#231));
#63=EDGE_LOOP('',(#232));
#64=EDGE_LOOP('',(#233));
#65=EDGE_LOOP('',(#234));
#66=EDGE_LOOP('',(#235));
#67=EDGE_LOOP('',(#236));
#68=EDGE_LOOP('',(#237));
#69=EDGE_LOOP('',(#238,#239,#240,#241));
#70=EDGE_LOOP('',(#242,#243,#244,#245));
#71=EDGE_LOOP('',(#246,#247,#248,#249));
#72=EDGE_LOOP('',(#250,#251,#252,#253));
#73=EDGE_LOOP('',(#254,#255,#256,#257));
#74=EDGE_LOOP('',(#258,#259,#260,#261));
#75=EDGE_LOOP('',(#262,#263,#264,#265));
#76=EDGE_LOOP('',(#266));
#77=EDGE_LOOP('',(#267));
#78=EDGE_LOOP('',(#268));
#79=EDGE_LOOP('',(#269));
#80=EDGE_LOOP('',(#270));
#81=EDGE_LOOP('',(#271));
#82=EDGE_LOOP('',(#272));
#83=EDGE_LOOP('',(#273));
#84=EDGE_LOOP('',(#274,#275,#276,#277));
#85=EDGE_LOOP('',(#278,#279,#280,#281));
#86=EDGE_LOOP('',(#282,#283,#284,#285));
#87=CIRCLE('',#329,3.00000004470348);
#88=CIRCLE('',#332,3.00000004470348);
#89=CIRCLE('',#336,12.45);
#90=CIRCLE('',#337,8.25);
#91=CIRCLE('',#339,26.);
#92=CIRCLE('',#340,3.05);
#93=CIRCLE('',#341,3.05);
#94=CIRCLE('',#342,3.05);
#95=CIRCLE('',#343,3.05);
#96=CIRCLE('',#344,3.05);
#97=CIRCLE('',#345,3.05);
#98=CIRCLE('',#346,12.45);
#99=CIRCLE('',#348,3.05);
#100=CIRCLE('',#350,3.05);
#101=CIRCLE('',#352,3.05);
#102=CIRCLE('',#354,3.05);
#103=CIRCLE('',#356,3.05);
#104=CIRCLE('',#358,3.05);
#105=CIRCLE('',#360,26.);
#106=CIRCLE('',#362,8.25);
#107=LINE('',#481,#124);
#108=LINE('',#484,#125);
#109=LINE('',#487,#126);
#110=LINE('',#489,#127);
#111=LINE('',#490,#128);
#112=LINE('',#513,#129);
#113=LINE('',#515,#130);
#114=LINE('',#516,#131);
#115=LINE('',#543,#132);
#116=LINE('',#547,#133);
#117=LINE('',#551,#134);
#118=LINE('',#555,#135);
#119=LINE('',#559,#136);
#120=LINE('',#563,#137);
#121=LINE('',#567,#138);
#122=LINE('',#572,#139);
#123=LINE('',#574,#140);
#124=VECTOR('',#369,10.);
#125=VECTOR('',#372,10.);
#126=VECTOR('',#375,10.);
#127=VECTOR('',#376,10.);
#128=VECTOR('',#377,10.);
#129=VECTOR('',#382,10.);
#130=VECTOR('',#385,10.);
#131=VECTOR('',#386,10.);
#132=VECTOR('',#417,3.05);
#133=VECTOR('',#422,3.05);
#134=VECTOR('',#427,3.05);
#135=VECTOR('',#432,3.05);
#136=VECTOR('',#437,3.05);
#137=VECTOR('',#442,3.05);
#138=VECTOR('',#447,26.);
#139=VECTOR('',#454,8.25);
#140=VECTOR('',#457,12.45);
#141=B_SPLINE_CURVE_WITH_KNOTS('',3,(#462,#463,#464,#465,#466,#467,#468,
#469,#470,#471,#472,#473,#474,#475,#476,#477,#478,#479),.UNSPECIFIED.,.F.,
 .F.,(4,2,2,2,2,2,2,2,4),(0.,0.113495319526714,0.226990639053429,0.34047232188965,
0.453954004725872,0.567435687562094,0.680917370398316,0.794412689925031,
0.907908009451745),.UNSPECIFIED.);
#142=B_SPLINE_CURVE_WITH_KNOTS('',3,(#493,#494,#495,#496,#497,#498,#499,
#500,#501,#502,#503,#504,#505,#506,#507,#508,#509,#510),.UNSPECIFIED.,.F.,
 .F.,(4,2,2,2,2,2,2,2,4),(-0.907908009451744,-0.79441268992503,-0.680917370398316,
-0.567435687562094,-0.453954004725872,-0.34047232188965,-0.226990639053428,
-0.113495319526714,0.),.UNSPECIFIED.);
#143=VERTEX_POINT('',#460);
#144=VERTEX_POINT('',#461);
#145=VERTEX_POINT('',#480);
#146=VERTEX_POINT('',#482);
#147=VERTEX_POINT('',#486);
#148=VERTEX_POINT('',#488);
#149=VERTEX_POINT('',#492);
#150=VERTEX_POINT('',#511);
#151=VERTEX_POINT('',#519);
#152=VERTEX_POINT('',#521);
#153=VERTEX_POINT('',#524);
#154=VERTEX_POINT('',#526);
#155=VERTEX_POINT('',#528);
#156=VERTEX_POINT('',#530);
#157=VERTEX_POINT('',#532);
#158=VERTEX_POINT('',#534);
#159=VERTEX_POINT('',#536);
#160=VERTEX_POINT('',#538);
#161=VERTEX_POINT('',#541);
#162=VERTEX_POINT('',#545);
#163=VERTEX_POINT('',#549);
#164=VERTEX_POINT('',#553);
#165=VERTEX_POINT('',#557);
#166=VERTEX_POINT('',#561);
#167=VERTEX_POINT('',#565);
#168=VERTEX_POINT('',#569);
#169=EDGE_CURVE('',#143,#144,#141,.T.);
#170=EDGE_CURVE('',#145,#143,#107,.T.);
#171=EDGE_CURVE('',#145,#146,#87,.T.);
#172=EDGE_CURVE('',#146,#144,#108,.T.);
#173=EDGE_CURVE('',#144,#147,#109,.T.);
#174=EDGE_CURVE('',#146,#148,#110,.T.);
#175=EDGE_CURVE('',#148,#147,#111,.T.);
#176=EDGE_CURVE('',#147,#149,#142,.T.);
#177=EDGE_CURVE('',#148,#150,#88,.T.);
#178=EDGE_CURVE('',#150,#149,#112,.T.);
#179=EDGE_CURVE('',#149,#143,#113,.T.);
#180=EDGE_CURVE('',#150,#145,#114,.T.);
#181=EDGE_CURVE('',#151,#151,#89,.T.);
#182=EDGE_CURVE('',#152,#152,#90,.T.);
#183=EDGE_CURVE('',#153,#153,#91,.T.);
#184=EDGE_CURVE('',#154,#154,#92,.T.);
#185=EDGE_CURVE('',#155,#155,#93,.T.);
#186=EDGE_CURVE('',#156,#156,#94,.T.);
#187=EDGE_CURVE('',#157,#157,#95,.T.);
#188=EDGE_CURVE('',#158,#158,#96,.T.);
#189=EDGE_CURVE('',#159,#159,#97,.T.);
#190=EDGE_CURVE('',#160,#160,#98,.T.);
#191=EDGE_CURVE('',#161,#161,#99,.T.);
#192=EDGE_CURVE('',#161,#154,#115,.T.);
#193=EDGE_CURVE('',#162,#162,#100,.T.);
#194=EDGE_CURVE('',#162,#155,#116,.T.);
#195=EDGE_CURVE('',#163,#163,#101,.T.);
#196=EDGE_CURVE('',#163,#156,#117,.T.);
#197=EDGE_CURVE('',#164,#164,#102,.T.);
#198=EDGE_CURVE('',#164,#157,#118,.T.);
#199=EDGE_CURVE('',#165,#165,#103,.T.);
#200=EDGE_CURVE('',#165,#158,#119,.T.);
#201=EDGE_CURVE('',#166,#166,#104,.T.);
#202=EDGE_CURVE('',#166,#159,#120,.T.);
#203=EDGE_CURVE('',#167,#167,#105,.T.);
#204=EDGE_CURVE('',#167,#153,#121,.T.);
#205=EDGE_CURVE('',#168,#168,#106,.T.);
#206=EDGE_CURVE('',#152,#168,#122,.T.);
#207=EDGE_CURVE('',#151,#160,#123,.T.);
#208=ORIENTED_EDGE('',*,*,#169,.F.);
#209=ORIENTED_EDGE('',*,*,#170,.F.);
#210=ORIENTED_EDGE('',*,*,#171,.T.);
#211=ORIENTED_EDGE('',*,*,#172,.T.);
#212=ORIENTED_EDGE('',*,*,#173,.F.);
#213=ORIENTED_EDGE('',*,*,#172,.F.);
#214=ORIENTED_EDGE('',*,*,#174,.T.);
#215=ORIENTED_EDGE('',*,*,#175,.T.);
#216=ORIENTED_EDGE('',*,*,#176,.F.);
#217=ORIENTED_EDGE('',*,*,#175,.F.);
#218=ORIENTED_EDGE('',*,*,#177,.T.);
#219=ORIENTED_EDGE('',*,*,#178,.T.);
#220=ORIENTED_EDGE('',*,*,#179,.F.);
#221=ORIENTED_EDGE('',*,*,#178,.F.);
#222=ORIENTED_EDGE('',*,*,#180,.T.);
#223=ORIENTED_EDGE('',*,*,#170,.T.);
#224=ORIENTED_EDGE('',*,*,#177,.F.);
#225=ORIENTED_EDGE('',*,*,#174,.F.);
#226=ORIENTED_EDGE('',*,*,#171,.F.);
#227=ORIENTED_EDGE('',*,*,#180,.F.);
#228=ORIENTED_EDGE('',*,*,#181,.T.);
#229=ORIENTED_EDGE('',*,*,#182,.T.);
#230=ORIENTED_EDGE('',*,*,#183,.T.);
#231=ORIENTED_EDGE('',*,*,#184,.T.);
#232=ORIENTED_EDGE('',*,*,#185,.T.);
#233=ORIENTED_EDGE('',*,*,#186,.T.);
#234=ORIENTED_EDGE('',*,*,#187,.T.);
#235=ORIENTED_EDGE('',*,*,#188,.T.);
#236=ORIENTED_EDGE('',*,*,#189,.T.);
#237=ORIENTED_EDGE('',*,*,#190,.F.);
#238=ORIENTED_EDGE('',*,*,#191,.F.);
#239=ORIENTED_EDGE('',*,*,#192,.T.);
#240=ORIENTED_EDGE('',*,*,#184,.F.);
#241=ORIENTED_EDGE('',*,*,#192,.F.);
#242=ORIENTED_EDGE('',*,*,#193,.F.);
#243=ORIENTED_EDGE('',*,*,#194,.T.);
#244=ORIENTED_EDGE('',*,*,#185,.F.);
#245=ORIENTED_EDGE('',*,*,#194,.F.);
#246=ORIENTED_EDGE('',*,*,#195,.F.);
#247=ORIENTED_EDGE('',*,*,#196,.T.);
#248=ORIENTED_EDGE('',*,*,#186,.F.);
#249=ORIENTED_EDGE('',*,*,#196,.F.);
#250=ORIENTED_EDGE('',*,*,#197,.F.);
#251=ORIENTED_EDGE('',*,*,#198,.T.);
#252=ORIENTED_EDGE('',*,*,#187,.F.);
#253=ORIENTED_EDGE('',*,*,#198,.F.);
#254=ORIENTED_EDGE('',*,*,#199,.F.);
#255=ORIENTED_EDGE('',*,*,#200,.T.);
#256=ORIENTED_EDGE('',*,*,#188,.F.);
#257=ORIENTED_EDGE('',*,*,#200,.F.);
#258=ORIENTED_EDGE('',*,*,#201,.F.);
#259=ORIENTED_EDGE('',*,*,#202,.T.);
#260=ORIENTED_EDGE('',*,*,#189,.F.);
#261=ORIENTED_EDGE('',*,*,#202,.F.);
#262=ORIENTED_EDGE('',*,*,#203,.F.);
#263=ORIENTED_EDGE('',*,*,#204,.T.);
#264=ORIENTED_EDGE('',*,*,#183,.F.);
#265=ORIENTED_EDGE('',*,*,#204,.F.);
#266=ORIENTED_EDGE('',*,*,#203,.T.);
#267=ORIENTED_EDGE('',*,*,#201,.T.);
#268=ORIENTED_EDGE('',*,*,#199,.T.);
#269=ORIENTED_EDGE('',*,*,#197,.T.);
#270=ORIENTED_EDGE('',*,*,#205,.T.);
#271=ORIENTED_EDGE('',*,*,#195,.T.);
#272=ORIENTED_EDGE('',*,*,#193,.T.);
#273=ORIENTED_EDGE('',*,*,#191,.T.);
#274=ORIENTED_EDGE('',*,*,#182,.F.);
#275=ORIENTED_EDGE('',*,*,#206,.T.);
#276=ORIENTED_EDGE('',*,*,#205,.F.);
#277=ORIENTED_EDGE('',*,*,#206,.F.);
#278=ORIENTED_EDGE('',*,*,#181,.F.);
#279=ORIENTED_EDGE('',*,*,#207,.T.);
#280=ORIENTED_EDGE('',*,*,#190,.T.);
#281=ORIENTED_EDGE('',*,*,#207,.F.);
#282=ORIENTED_EDGE('',*,*,#176,.T.);
#283=ORIENTED_EDGE('',*,*,#179,.T.);
#284=ORIENTED_EDGE('',*,*,#169,.T.);
#285=ORIENTED_EDGE('',*,*,#173,.T.);
#286=CYLINDRICAL_SURFACE('',#328,3.00000004470348);
#287=CYLINDRICAL_SURFACE('',#331,3.00000004470348);
#288=CYLINDRICAL_SURFACE('',#347,3.05);
#289=CYLINDRICAL_SURFACE('',#349,3.05);
#290=CYLINDRICAL_SURFACE('',#351,3.05);
#291=CYLINDRICAL_SURFACE('',#353,3.05);
#292=CYLINDRICAL_SURFACE('',#355,3.05);
#293=CYLINDRICAL_SURFACE('',#357,3.05);
#294=CYLINDRICAL_SURFACE('',#359,26.);
#295=CYLINDRICAL_SURFACE('',#363,8.25);
#296=CYLINDRICAL_SURFACE('',#364,12.45);
#297=ADVANCED_FACE('',(#37),#286,.F.);
#298=ADVANCED_FACE('',(#38),#31,.F.);
#299=ADVANCED_FACE('',(#39),#287,.F.);
#300=ADVANCED_FACE('',(#40),#32,.F.);
#301=ADVANCED_FACE('',(#41),#33,.F.);
#302=ADVANCED_FACE('',(#42,#15),#34,.T.);
#303=ADVANCED_FACE('',(#43,#16,#17,#18,#19,#20,#21,#22),#35,.T.);
#304=ADVANCED_FACE('',(#44),#288,.F.);
#305=ADVANCED_FACE('',(#45),#289,.F.);
#306=ADVANCED_FACE('',(#46),#290,.F.);
#307=ADVANCED_FACE('',(#47),#291,.F.);
#308=ADVANCED_FACE('',(#48),#292,.F.);
#309=ADVANCED_FACE('',(#49),#293,.F.);
#310=ADVANCED_FACE('',(#50),#294,.T.);
#311=ADVANCED_FACE('',(#51,#23,#24,#25,#26,#27,#28,#29),#36,.F.);
#312=ADVANCED_FACE('',(#52),#295,.F.);
#313=ADVANCED_FACE('',(#53,#30),#296,.T.);
#314=CLOSED_SHELL('',(#297,#298,#299,#300,#301,#302,#303,#304,#305,#306,
#307,#308,#309,#310,#311,#312,#313));
#315=DERIVED_UNIT_ELEMENT(#317,1.);
#316=DERIVED_UNIT_ELEMENT(#580,-3.);
#317=(
MASS_UNIT()
NAMED_UNIT(*)
SI_UNIT(.KILO.,.GRAM.)
);
#318=DERIVED_UNIT((#315,#316));
#319=MEASURE_REPRESENTATION_ITEM('density measure',
POSITIVE_RATIO_MEASURE(7850.),#318);
#320=PROPERTY_DEFINITION_REPRESENTATION(#325,#322);
#321=PROPERTY_DEFINITION_REPRESENTATION(#326,#323);
#322=REPRESENTATION('material name',(#324),#577);
#323=REPRESENTATION('density',(#319),#577);
#324=DESCRIPTIVE_REPRESENTATION_ITEM('Acier','Acier');
#325=PROPERTY_DEFINITION('material property','material name',#587);
#326=PROPERTY_DEFINITION('material property','density of part',#587);
#327=AXIS2_PLACEMENT_3D('placement',#458,#365,#366);
#328=AXIS2_PLACEMENT_3D('',#459,#367,#368);
#329=AXIS2_PLACEMENT_3D('',#483,#370,#371);
#330=AXIS2_PLACEMENT_3D('',#485,#373,#374);
#331=AXIS2_PLACEMENT_3D('',#491,#378,#379);
#332=AXIS2_PLACEMENT_3D('',#512,#380,#381);
#333=AXIS2_PLACEMENT_3D('',#514,#383,#384);
#334=AXIS2_PLACEMENT_3D('',#517,#387,#388);
#335=AXIS2_PLACEMENT_3D('',#518,#389,#390);
#336=AXIS2_PLACEMENT_3D('',#520,#391,#392);
#337=AXIS2_PLACEMENT_3D('',#522,#393,#394);
#338=AXIS2_PLACEMENT_3D('',#523,#395,#396);
#339=AXIS2_PLACEMENT_3D('',#525,#397,#398);
#340=AXIS2_PLACEMENT_3D('',#527,#399,#400);
#341=AXIS2_PLACEMENT_3D('',#529,#401,#402);
#342=AXIS2_PLACEMENT_3D('',#531,#403,#404);
#343=AXIS2_PLACEMENT_3D('',#533,#405,#406);
#344=AXIS2_PLACEMENT_3D('',#535,#407,#408);
#345=AXIS2_PLACEMENT_3D('',#537,#409,#410);
#346=AXIS2_PLACEMENT_3D('',#539,#411,#412);
#347=AXIS2_PLACEMENT_3D('',#540,#413,#414);
#348=AXIS2_PLACEMENT_3D('',#542,#415,#416);
#349=AXIS2_PLACEMENT_3D('',#544,#418,#419);
#350=AXIS2_PLACEMENT_3D('',#546,#420,#421);
#351=AXIS2_PLACEMENT_3D('',#548,#423,#424);
#352=AXIS2_PLACEMENT_3D('',#550,#425,#426);
#353=AXIS2_PLACEMENT_3D('',#552,#428,#429);
#354=AXIS2_PLACEMENT_3D('',#554,#430,#431);
#355=AXIS2_PLACEMENT_3D('',#556,#433,#434);
#356=AXIS2_PLACEMENT_3D('',#558,#435,#436);
#357=AXIS2_PLACEMENT_3D('',#560,#438,#439);
#358=AXIS2_PLACEMENT_3D('',#562,#440,#441);
#359=AXIS2_PLACEMENT_3D('',#564,#443,#444);
#360=AXIS2_PLACEMENT_3D('',#566,#445,#446);
#361=AXIS2_PLACEMENT_3D('',#568,#448,#449);
#362=AXIS2_PLACEMENT_3D('',#570,#450,#451);
#363=AXIS2_PLACEMENT_3D('',#571,#452,#453);
#364=AXIS2_PLACEMENT_3D('',#573,#455,#456);
#365=DIRECTION('axis',(0.,0.,1.));
#366=DIRECTION('refdir',(1.,0.,0.));
#367=DIRECTION('center_axis',(0.,-1.,0.));
#368=DIRECTION('ref_axis',(1.,0.,0.));
#369=DIRECTION('',(0.,-1.,0.));
#370=DIRECTION('center_axis',(0.,1.,0.));
#371=DIRECTION('ref_axis',(1.,0.,0.));
#372=DIRECTION('',(0.,-1.,0.));
#373=DIRECTION('center_axis',(-1.,0.,0.));
#374=DIRECTION('ref_axis',(0.,0.,-1.));
#375=DIRECTION('',(0.,0.,1.));
#376=DIRECTION('',(0.,0.,1.));
#377=DIRECTION('',(0.,-1.,0.));
#378=DIRECTION('center_axis',(0.,-1.,0.));
#379=DIRECTION('ref_axis',(-1.,0.,0.));
#380=DIRECTION('center_axis',(0.,1.,0.));
#381=DIRECTION('ref_axis',(-1.,0.,0.));
#382=DIRECTION('',(0.,-1.,0.));
#383=DIRECTION('center_axis',(1.,0.,0.));
#384=DIRECTION('ref_axis',(0.,0.,1.));
#385=DIRECTION('',(0.,0.,-1.));
#386=DIRECTION('',(0.,0.,-1.));
#387=DIRECTION('center_axis',(0.,1.,0.));
#388=DIRECTION('ref_axis',(-1.,0.,0.));
#389=DIRECTION('center_axis',(0.,0.,1.));
#390=DIRECTION('ref_axis',(1.,0.,0.));
#391=DIRECTION('center_axis',(0.,0.,1.));
#392=DIRECTION('ref_axis',(1.,0.,0.));
#393=DIRECTION('center_axis',(0.,0.,-1.));
#394=DIRECTION('ref_axis',(1.,0.,0.));
#395=DIRECTION('center_axis',(0.,0.,1.));
#396=DIRECTION('ref_axis',(1.,0.,0.));
#397=DIRECTION('center_axis',(0.,0.,1.));
#398=DIRECTION('ref_axis',(1.,0.,0.));
#399=DIRECTION('center_axis',(0.,0.,-1.));
#400=DIRECTION('ref_axis',(1.,0.,0.));
#401=DIRECTION('center_axis',(0.,0.,-1.));
#402=DIRECTION('ref_axis',(1.,0.,0.));
#403=DIRECTION('center_axis',(0.,0.,-1.));
#404=DIRECTION('ref_axis',(1.,0.,0.));
#405=DIRECTION('center_axis',(0.,0.,-1.));
#406=DIRECTION('ref_axis',(1.,0.,0.));
#407=DIRECTION('center_axis',(0.,0.,-1.));
#408=DIRECTION('ref_axis',(1.,0.,0.));
#409=DIRECTION('center_axis',(0.,0.,-1.));
#410=DIRECTION('ref_axis',(1.,0.,0.));
#411=DIRECTION('center_axis',(0.,0.,1.));
#412=DIRECTION('ref_axis',(1.,0.,0.));
#413=DIRECTION('center_axis',(0.,0.,-1.));
#414=DIRECTION('ref_axis',(1.,0.,0.));
#415=DIRECTION('center_axis',(0.,0.,1.));
#416=DIRECTION('ref_axis',(1.,0.,0.));
#417=DIRECTION('',(0.,0.,1.));
#418=DIRECTION('center_axis',(0.,0.,-1.));
#419=DIRECTION('ref_axis',(1.,0.,0.));
#420=DIRECTION('center_axis',(0.,0.,1.));
#421=DIRECTION('ref_axis',(1.,0.,0.));
#422=DIRECTION('',(0.,0.,1.));
#423=DIRECTION('center_axis',(0.,0.,-1.));
#424=DIRECTION('ref_axis',(1.,0.,0.));
#425=DIRECTION('center_axis',(0.,0.,1.));
#426=DIRECTION('ref_axis',(1.,0.,0.));
#427=DIRECTION('',(0.,0.,1.));
#428=DIRECTION('center_axis',(0.,0.,-1.));
#429=DIRECTION('ref_axis',(1.,0.,0.));
#430=DIRECTION('center_axis',(0.,0.,1.));
#431=DIRECTION('ref_axis',(1.,0.,0.));
#432=DIRECTION('',(0.,0.,1.));
#433=DIRECTION('center_axis',(0.,0.,-1.));
#434=DIRECTION('ref_axis',(1.,0.,0.));
#435=DIRECTION('center_axis',(0.,0.,1.));
#436=DIRECTION('ref_axis',(1.,0.,0.));
#437=DIRECTION('',(0.,0.,1.));
#438=DIRECTION('center_axis',(0.,0.,-1.));
#439=DIRECTION('ref_axis',(1.,0.,0.));
#440=DIRECTION('center_axis',(0.,0.,1.));
#441=DIRECTION('ref_axis',(1.,0.,0.));
#442=DIRECTION('',(0.,0.,1.));
#443=DIRECTION('center_axis',(0.,0.,-1.));
#444=DIRECTION('ref_axis',(1.,0.,0.));
#445=DIRECTION('center_axis',(0.,0.,-1.));
#446=DIRECTION('ref_axis',(1.,0.,0.));
#447=DIRECTION('',(0.,0.,1.));
#448=DIRECTION('center_axis',(0.,0.,1.));
#449=DIRECTION('ref_axis',(1.,0.,0.));
#450=DIRECTION('center_axis',(0.,0.,1.));
#451=DIRECTION('ref_axis',(1.,0.,0.));
#452=DIRECTION('center_axis',(0.,0.,1.));
#453=DIRECTION('ref_axis',(1.,0.,0.));
#454=DIRECTION('',(0.,0.,-1.));
#455=DIRECTION('center_axis',(0.,0.,1.));
#456=DIRECTION('ref_axis',(1.,0.,0.));
#457=DIRECTION('',(0.,0.,-1.));
#458=CARTESIAN_POINT('',(0.,0.,0.));
#459=CARTESIAN_POINT('Origin',(0.,-9.5,7.00000004470348));
#460=CARTESIAN_POINT('',(3.00000004470348,-12.0831494127888,7.00000004470348));
#461=CARTESIAN_POINT('',(-3.00000004470348,-12.0831494127888,7.00000004470348));
#462=CARTESIAN_POINT('Ctrl Pts',(3.00000004470348,-12.0831494127888,7.00000004470348));
#463=CARTESIAN_POINT('Ctrl Pts',(3.00000004470348,-12.0831494127888,6.62168231294777));
#464=CARTESIAN_POINT('Ctrl Pts',(2.92408726784833,-12.1027658538574,6.21921629847123));
#465=CARTESIAN_POINT('Ctrl Pts',(2.61747604695682,-12.1727583635104,5.48054965048607));
#466=CARTESIAN_POINT('Ctrl Pts',(2.38685391975353,-12.2220311163333,5.14421321411746));
#467=CARTESIAN_POINT('Ctrl Pts',(1.85581873497449,-12.3138554326764,4.61317802933841));
#468=CARTESIAN_POINT('Ctrl Pts',(1.51946895951946,-12.3624962215787,4.3825310017501));
#469=CARTESIAN_POINT('Ctrl Pts',(0.780755198551856,-12.4310305308344,4.075901629301));
#470=CARTESIAN_POINT('Ctrl Pts',(0.37827227612074,-12.45,4.));
#471=CARTESIAN_POINT('Ctrl Pts',(-0.37827227612074,-12.45,4.));
#472=CARTESIAN_POINT('Ctrl Pts',(-0.780755198551856,-12.4310305308344,4.075901629301));
#473=CARTESIAN_POINT('Ctrl Pts',(-1.51946895951946,-12.3624962215787,4.3825310017501));
#474=CARTESIAN_POINT('Ctrl Pts',(-1.85581873497449,-12.3138554326764,4.61317802933841));
#475=CARTESIAN_POINT('Ctrl Pts',(-2.38685391975353,-12.2220311163333,5.14421321411746));
#476=CARTESIAN_POINT('Ctrl Pts',(-2.61747604695682,-12.1727583635104,5.48054965048607));
#477=CARTESIAN_POINT('Ctrl Pts',(-2.92408726784833,-12.1027658538574,6.21921629847123));
#478=CARTESIAN_POINT('Ctrl Pts',(-3.00000004470348,-12.0831494127888,6.62168231294777));
#479=CARTESIAN_POINT('Ctrl Pts',(-3.00000004470348,-12.0831494127888,7.00000004470348));
#480=CARTESIAN_POINT('',(3.00000004470348,-9.5,7.00000004470348));
#481=CARTESIAN_POINT('',(3.00000004470348,-9.5,7.00000004470348));
#482=CARTESIAN_POINT('',(-3.00000004470348,-9.5,7.00000004470348));
#483=CARTESIAN_POINT('Origin',(0.,-9.5,7.00000004470348));
#484=CARTESIAN_POINT('',(-3.00000004470348,-9.5,7.00000004470348));
#485=CARTESIAN_POINT('Origin',(-3.00000004470348,-9.5,30.9999999552965));
#486=CARTESIAN_POINT('',(-3.00000004470348,-12.0831494127888,30.9999999552965));
#487=CARTESIAN_POINT('',(-3.00000004470348,-12.0831494127888,0.));
#488=CARTESIAN_POINT('',(-3.00000004470348,-9.5,30.9999999552965));
#489=CARTESIAN_POINT('',(-3.00000004470348,-9.5,7.00000004470348));
#490=CARTESIAN_POINT('',(-3.00000004470348,-9.5,30.9999999552965));
#491=CARTESIAN_POINT('Origin',(0.,-9.5,30.9999999552965));
#492=CARTESIAN_POINT('',(3.00000004470348,-12.0831494127888,30.9999999552965));
#493=CARTESIAN_POINT('Ctrl Pts',(-3.00000004470348,-12.0831494127888,30.9999999552965));
#494=CARTESIAN_POINT('Ctrl Pts',(-3.00000004470348,-12.0831494127888,31.3783176870522));
#495=CARTESIAN_POINT('Ctrl Pts',(-2.92408726784833,-12.1027658538574,31.7807837015288));
#496=CARTESIAN_POINT('Ctrl Pts',(-2.61747604695683,-12.1727583635104,32.5194503495139));
#497=CARTESIAN_POINT('Ctrl Pts',(-2.38685391975353,-12.2220311163333,32.8557867858825));
#498=CARTESIAN_POINT('Ctrl Pts',(-1.85581873497449,-12.3138554326764,33.3868219706616));
#499=CARTESIAN_POINT('Ctrl Pts',(-1.51946895951946,-12.3624962215787,33.6174689982499));
#500=CARTESIAN_POINT('Ctrl Pts',(-0.780755198551858,-12.4310305308344,33.924098370699));
#501=CARTESIAN_POINT('Ctrl Pts',(-0.378272276120741,-12.45,34.));
#502=CARTESIAN_POINT('Ctrl Pts',(0.378272276120739,-12.45,34.));
#503=CARTESIAN_POINT('Ctrl Pts',(0.780755198551853,-12.4310305308344,33.924098370699));
#504=CARTESIAN_POINT('Ctrl Pts',(1.51946895951945,-12.3624962215787,33.6174689982499));
#505=CARTESIAN_POINT('Ctrl Pts',(1.85581873497449,-12.3138554326764,33.3868219706616));
#506=CARTESIAN_POINT('Ctrl Pts',(2.38685391975353,-12.2220311163333,32.8557867858825));
#507=CARTESIAN_POINT('Ctrl Pts',(2.61747604695682,-12.1727583635104,32.5194503495139));
#508=CARTESIAN_POINT('Ctrl Pts',(2.92408726784833,-12.1027658538574,31.7807837015288));
#509=CARTESIAN_POINT('Ctrl Pts',(3.00000004470348,-12.0831494127888,31.3783176870522));
#510=CARTESIAN_POINT('Ctrl Pts',(3.00000004470348,-12.0831494127888,30.9999999552965));
#511=CARTESIAN_POINT('',(3.00000004470348,-9.5,30.9999999552965));
#512=CARTESIAN_POINT('Origin',(0.,-9.5,30.9999999552965));
#513=CARTESIAN_POINT('',(3.00000004470348,-9.5,30.9999999552965));
#514=CARTESIAN_POINT('Origin',(3.00000004470348,-9.5,7.00000004470348));
#515=CARTESIAN_POINT('',(3.00000004470348,-12.0831494127888,0.));
#516=CARTESIAN_POINT('',(3.00000004470348,-9.5,30.9999999552965));
#517=CARTESIAN_POINT('Origin',(0.,-9.5,19.));
#518=CARTESIAN_POINT('Origin',(0.,0.,36.));
#519=CARTESIAN_POINT('',(-12.45,-1.52468526493846E-15,36.));
#520=CARTESIAN_POINT('Origin',(0.,0.,36.));
#521=CARTESIAN_POINT('',(-8.25,-1.01033360929657E-15,36.));
#522=CARTESIAN_POINT('Origin',(0.,0.,36.));
#523=CARTESIAN_POINT('Origin',(0.,0.,0.));
#524=CARTESIAN_POINT('',(-26.,-3.18408167778312E-15,0.));
#525=CARTESIAN_POINT('Origin',(0.,0.,0.));
#526=CARTESIAN_POINT('',(15.95,-9.1242967264598E-15,0.));
#527=CARTESIAN_POINT('Origin',(19.,-8.75077945271986E-15,0.));
#528=CARTESIAN_POINT('',(-22.05,1.86517649385327E-15,0.));
#529=CARTESIAN_POINT('Origin',(-19.,2.23869376759321E-15,0.));
#530=CARTESIAN_POINT('',(6.45000000000001,16.4544826719043,0.));
#531=CARTESIAN_POINT('Origin',(9.50000000000001,16.4544826719043,0.));
#532=CARTESIAN_POINT('',(-12.55,-16.4544826719043,0.));
#533=CARTESIAN_POINT('Origin',(-9.5,-16.4544826719043,0.));
#534=CARTESIAN_POINT('',(-12.55,16.4544826719043,0.));
#535=CARTESIAN_POINT('Origin',(-9.5,16.4544826719043,0.));
#536=CARTESIAN_POINT('',(6.45,-16.4544826719043,0.));
#537=CARTESIAN_POINT('Origin',(9.49999999999999,-16.4544826719043,0.));
#538=CARTESIAN_POINT('',(-12.45,-1.52468526493846E-15,0.));
#539=CARTESIAN_POINT('Origin',(0.,0.,0.));
#540=CARTESIAN_POINT('Origin',(19.,-8.75077945271986E-15,0.));
#541=CARTESIAN_POINT('',(15.95,-8.88178419700125E-15,-5.));
#542=CARTESIAN_POINT('Origin',(19.,-8.75077945271986E-15,-5.));
#543=CARTESIAN_POINT('',(15.95,-8.37726217897991E-15,0.));
#544=CARTESIAN_POINT('Origin',(-19.,2.23869376759321E-15,0.));
#545=CARTESIAN_POINT('',(-22.05,2.22044604925031E-15,-5.));
#546=CARTESIAN_POINT('Origin',(-19.,2.23869376759321E-15,-5.));
#547=CARTESIAN_POINT('',(-22.05,2.61221104133315E-15,0.));
#548=CARTESIAN_POINT('Origin',(9.50000000000001,16.4544826719043,0.));
#549=CARTESIAN_POINT('',(6.45000000000001,16.4544826719043,-5.));
#550=CARTESIAN_POINT('Origin',(9.50000000000001,16.4544826719043,-5.));
#551=CARTESIAN_POINT('',(6.45000000000001,16.4544826719043,0.));
#552=CARTESIAN_POINT('Origin',(-9.5,-16.4544826719043,0.));
#553=CARTESIAN_POINT('',(-12.55,-16.4544826719043,-5.));
#554=CARTESIAN_POINT('Origin',(-9.5,-16.4544826719043,-5.));
#555=CARTESIAN_POINT('',(-12.55,-16.4544826719043,0.));
#556=CARTESIAN_POINT('Origin',(-9.5,16.4544826719043,0.));
#557=CARTESIAN_POINT('',(-12.55,16.4544826719043,-5.));
#558=CARTESIAN_POINT('Origin',(-9.5,16.4544826719043,-5.));
#559=CARTESIAN_POINT('',(-12.55,16.4544826719043,0.));
#560=CARTESIAN_POINT('Origin',(9.49999999999999,-16.4544826719043,0.));
#561=CARTESIAN_POINT('',(6.45,-16.4544826719043,-5.));
#562=CARTESIAN_POINT('Origin',(9.49999999999999,-16.4544826719043,-5.));
#563=CARTESIAN_POINT('',(6.45,-16.4544826719043,0.));
#564=CARTESIAN_POINT('Origin',(0.,0.,0.));
#565=CARTESIAN_POINT('',(-26.,-2.22044604925031E-15,-5.));
#566=CARTESIAN_POINT('Origin',(0.,0.,-5.));
#567=CARTESIAN_POINT('',(-26.,3.18408167778312E-15,0.));
#568=CARTESIAN_POINT('Origin',(0.,0.,-5.));
#569=CARTESIAN_POINT('',(-8.25,0.,-5.));
#570=CARTESIAN_POINT('Origin',(0.,0.,-5.));
#571=CARTESIAN_POINT('Origin',(0.,0.,0.));
#572=CARTESIAN_POINT('',(-8.25,-1.01033360929657E-15,0.));
#573=CARTESIAN_POINT('Origin',(0.,0.,0.));
#574=CARTESIAN_POINT('',(-12.45,-1.52468526493846E-15,0.));
#575=UNCERTAINTY_MEASURE_WITH_UNIT(LENGTH_MEASURE(0.01),#579,
'DISTANCE_ACCURACY_VALUE',
'Maximum model space distance between geometric entities at asserted c
onnectivities');
#576=UNCERTAINTY_MEASURE_WITH_UNIT(LENGTH_MEASURE(0.01),#579,
'DISTANCE_ACCURACY_VALUE',
'Maximum model space distance between geometric entities at asserted c
onnectivities');
#577=(
GEOMETRIC_REPRESENTATION_CONTEXT(3)
GLOBAL_UNCERTAINTY_ASSIGNED_CONTEXT((#575))
GLOBAL_UNIT_ASSIGNED_CONTEXT((#579,#581,#582))
REPRESENTATION_CONTEXT('','3D')
);
#578=(
GEOMETRIC_REPRESENTATION_CONTEXT(3)
GLOBAL_UNCERTAINTY_ASSIGNED_CONTEXT((#576))
GLOBAL_UNIT_ASSIGNED_CONTEXT((#579,#581,#582))
REPRESENTATION_CONTEXT('','3D')
);
#579=(
LENGTH_UNIT()
NAMED_UNIT(*)
SI_UNIT(.MILLI.,.METRE.)
);
#580=(
LENGTH_UNIT()
NAMED_UNIT(*)
SI_UNIT($,.METRE.)
);
#581=(
NAMED_UNIT(*)
PLANE_ANGLE_UNIT()
SI_UNIT($,.RADIAN.)
);
#582=(
NAMED_UNIT(*)
SI_UNIT($,.STERADIAN.)
SOLID_ANGLE_UNIT()
);
#583=SHAPE_DEFINITION_REPRESENTATION(#584,#585);
#584=PRODUCT_DEFINITION_SHAPE('',$,#587);
#585=SHAPE_REPRESENTATION('',(#327),#577);
#586=PRODUCT_DEFINITION_CONTEXT('part definition',#591,'design');
#587=PRODUCT_DEFINITION('Cl\X\E9','Cl\X\E9',#588,#586);
#588=PRODUCT_DEFINITION_FORMATION('',$,#593);
#589=PRODUCT_RELATED_PRODUCT_CATEGORY('Cl\X\E9','Cl\X\E9',(#593));
#590=APPLICATION_PROTOCOL_DEFINITION('international standard',
'automotive_design',2009,#591);
#591=APPLICATION_CONTEXT(
'Core Data for Automotive Mechanical Design Process');
#592=PRODUCT_CONTEXT('part definition',#591,'mechanical');
#593=PRODUCT('Cl\X\E9','Cl\X\E9',$,(#592));
#594=PRESENTATION_STYLE_ASSIGNMENT((#596));
#595=PRESENTATION_STYLE_ASSIGNMENT((#597));
#596=SURFACE_STYLE_USAGE(.BOTH.,#598);
#597=SURFACE_STYLE_USAGE(.BOTH.,#599);
#598=SURFACE_SIDE_STYLE('',(#600));
#599=SURFACE_SIDE_STYLE('',(#601));
#600=SURFACE_STYLE_FILL_AREA(#602);
#601=SURFACE_STYLE_FILL_AREA(#603);
#602=FILL_AREA_STYLE('Acier - Satin\X\E9',(#604));
#603=FILL_AREA_STYLE('Miroir',(#605));
#604=FILL_AREA_STYLE_COLOUR('Acier - Satin\X\E9',#606);
#605=FILL_AREA_STYLE_COLOUR('Miroir',#607);
#606=COLOUR_RGB('Acier - Satin\X\E9',0.627450980392157,0.627450980392157,
0.627450980392157);
#607=COLOUR_RGB('Miroir',0.96078431372549,0.96078431372549,0.964705882352941);
ENDSEC;
END-ISO-10303-21;
