ISO-10303-21;
HEADER;
/* Generated by software containing ST-Developer
 * from STEP Tools, Inc. (www.steptools.com) 
 */

FILE_DESCRIPTION(
/* description */ (''),
/* implementation_level */ '2;1');

FILE_NAME(
/* name */ 'C:/Users/xps62/Downloads/arbre excentrique v2.step',
/* time_stamp */ '2022-09-19T17:15:05+02:00',
/* author */ (''),
/* organization */ (''),
/* preprocessor_version */ 'ST-DEVELOPER v19',
/* originating_system */ 'Autodesk Translation Framework v11.7.0.108',
/* authorisation */ '');

FILE_SCHEMA (('AUTOMOTIVE_DESIGN { 1 0 10303 214 3 1 1 }'));
ENDSEC;

DATA;
#10=MECHANICAL_DESIGN_GEOMETRIC_PRESENTATION_REPRESENTATION('',(#13),#178);
#11=SHAPE_REPRESENTATION_RELATIONSHIP('SRR','None',#185,#12);
#12=ADVANCED_BREP_SHAPE_REPRESENTATION('',(#14),#177);
#13=STYLED_ITEM('',(#194),#14);
#14=MANIFOLD_SOLID_BREP('Corps1',#91);
#15=PLANE('',#109);
#16=PLANE('',#110);
#17=PLANE('',#115);
#18=PLANE('',#116);
#19=FACE_OUTER_BOUND('',#26,.T.);
#20=FACE_OUTER_BOUND('',#27,.T.);
#21=FACE_OUTER_BOUND('',#28,.T.);
#22=FACE_OUTER_BOUND('',#29,.T.);
#23=FACE_OUTER_BOUND('',#30,.T.);
#24=FACE_OUTER_BOUND('',#31,.T.);
#25=FACE_OUTER_BOUND('',#32,.T.);
#26=EDGE_LOOP('',(#61,#62,#63,#64,#65));
#27=EDGE_LOOP('',(#66));
#28=EDGE_LOOP('',(#67,#68,#69));
#29=EDGE_LOOP('',(#70,#71,#72,#73));
#30=EDGE_LOOP('',(#74));
#31=EDGE_LOOP('',(#75,#76));
#32=EDGE_LOOP('',(#77,#78,#79,#80));
#33=LINE('',#157,#36);
#34=LINE('',#168,#37);
#35=LINE('',#174,#38);
#36=VECTOR('',#125,15.);
#37=VECTOR('',#140,15.);
#38=VECTOR('',#151,20.);
#39=CIRCLE('',#106,15.);
#40=CIRCLE('',#107,15.);
#41=CIRCLE('',#108,15.);
#42=CIRCLE('',#111,20.);
#43=CIRCLE('',#113,15.);
#44=CIRCLE('',#114,15.);
#45=CIRCLE('',#117,20.);
#46=VERTEX_POINT('',#154);
#47=VERTEX_POINT('',#156);
#48=VERTEX_POINT('',#158);
#49=VERTEX_POINT('',#165);
#50=VERTEX_POINT('',#167);
#51=EDGE_CURVE('',#46,#46,#39,.T.);
#52=EDGE_CURVE('',#46,#47,#33,.T.);
#53=EDGE_CURVE('',#48,#47,#40,.T.);
#54=EDGE_CURVE('',#47,#48,#41,.T.);
#55=EDGE_CURVE('',#48,#48,#42,.T.);
#56=EDGE_CURVE('',#49,#49,#43,.T.);
#57=EDGE_CURVE('',#49,#50,#34,.T.);
#58=EDGE_CURVE('',#50,#50,#44,.T.);
#59=EDGE_CURVE('',#50,#50,#45,.T.);
#60=EDGE_CURVE('',#48,#50,#35,.T.);
#61=ORIENTED_EDGE('',*,*,#51,.F.);
#62=ORIENTED_EDGE('',*,*,#52,.T.);
#63=ORIENTED_EDGE('',*,*,#53,.F.);
#64=ORIENTED_EDGE('',*,*,#54,.F.);
#65=ORIENTED_EDGE('',*,*,#52,.F.);
#66=ORIENTED_EDGE('',*,*,#51,.T.);
#67=ORIENTED_EDGE('',*,*,#55,.T.);
#68=ORIENTED_EDGE('',*,*,#53,.T.);
#69=ORIENTED_EDGE('',*,*,#54,.T.);
#70=ORIENTED_EDGE('',*,*,#56,.F.);
#71=ORIENTED_EDGE('',*,*,#57,.T.);
#72=ORIENTED_EDGE('',*,*,#58,.F.);
#73=ORIENTED_EDGE('',*,*,#57,.F.);
#74=ORIENTED_EDGE('',*,*,#56,.T.);
#75=ORIENTED_EDGE('',*,*,#59,.F.);
#76=ORIENTED_EDGE('',*,*,#58,.T.);
#77=ORIENTED_EDGE('',*,*,#55,.F.);
#78=ORIENTED_EDGE('',*,*,#60,.T.);
#79=ORIENTED_EDGE('',*,*,#59,.T.);
#80=ORIENTED_EDGE('',*,*,#60,.F.);
#81=CYLINDRICAL_SURFACE('',#105,15.);
#82=CYLINDRICAL_SURFACE('',#112,15.);
#83=CYLINDRICAL_SURFACE('',#118,20.);
#84=ADVANCED_FACE('',(#19),#81,.T.);
#85=ADVANCED_FACE('',(#20),#15,.T.);
#86=ADVANCED_FACE('',(#21),#16,.T.);
#87=ADVANCED_FACE('',(#22),#82,.T.);
#88=ADVANCED_FACE('',(#23),#17,.T.);
#89=ADVANCED_FACE('',(#24),#18,.F.);
#90=ADVANCED_FACE('',(#25),#83,.T.);
#91=CLOSED_SHELL('',(#84,#85,#86,#87,#88,#89,#90));
#92=DERIVED_UNIT_ELEMENT(#94,1.);
#93=DERIVED_UNIT_ELEMENT(#180,-3.);
#94=(
MASS_UNIT()
NAMED_UNIT(*)
SI_UNIT(.KILO.,.GRAM.)
);
#95=DERIVED_UNIT((#92,#93));
#96=MEASURE_REPRESENTATION_ITEM('density measure',
POSITIVE_RATIO_MEASURE(7850.),#95);
#97=PROPERTY_DEFINITION_REPRESENTATION(#102,#99);
#98=PROPERTY_DEFINITION_REPRESENTATION(#103,#100);
#99=REPRESENTATION('material name',(#101),#177);
#100=REPRESENTATION('density',(#96),#177);
#101=DESCRIPTIVE_REPRESENTATION_ITEM('Acier','Acier');
#102=PROPERTY_DEFINITION('material property','material name',#187);
#103=PROPERTY_DEFINITION('material property','density of part',#187);
#104=AXIS2_PLACEMENT_3D('placement',#152,#119,#120);
#105=AXIS2_PLACEMENT_3D('',#153,#121,#122);
#106=AXIS2_PLACEMENT_3D('',#155,#123,#124);
#107=AXIS2_PLACEMENT_3D('',#159,#126,#127);
#108=AXIS2_PLACEMENT_3D('',#160,#128,#129);
#109=AXIS2_PLACEMENT_3D('',#161,#130,#131);
#110=AXIS2_PLACEMENT_3D('',#162,#132,#133);
#111=AXIS2_PLACEMENT_3D('',#163,#134,#135);
#112=AXIS2_PLACEMENT_3D('',#164,#136,#137);
#113=AXIS2_PLACEMENT_3D('',#166,#138,#139);
#114=AXIS2_PLACEMENT_3D('',#169,#141,#142);
#115=AXIS2_PLACEMENT_3D('',#170,#143,#144);
#116=AXIS2_PLACEMENT_3D('',#171,#145,#146);
#117=AXIS2_PLACEMENT_3D('',#172,#147,#148);
#118=AXIS2_PLACEMENT_3D('',#173,#149,#150);
#119=DIRECTION('axis',(0.,0.,1.));
#120=DIRECTION('refdir',(1.,0.,0.));
#121=DIRECTION('center_axis',(0.,1.,0.));
#122=DIRECTION('ref_axis',(-1.,0.,0.));
#123=DIRECTION('center_axis',(0.,1.,0.));
#124=DIRECTION('ref_axis',(-1.,0.,0.));
#125=DIRECTION('',(0.,-1.,0.));
#126=DIRECTION('center_axis',(0.,-1.,0.));
#127=DIRECTION('ref_axis',(-1.,0.,0.));
#128=DIRECTION('center_axis',(0.,-1.,0.));
#129=DIRECTION('ref_axis',(-1.,0.,0.));
#130=DIRECTION('center_axis',(0.,1.,0.));
#131=DIRECTION('ref_axis',(-1.,0.,0.));
#132=DIRECTION('center_axis',(0.,1.,0.));
#133=DIRECTION('ref_axis',(1.,0.,0.));
#134=DIRECTION('center_axis',(0.,1.,0.));
#135=DIRECTION('ref_axis',(1.,0.,0.));
#136=DIRECTION('center_axis',(0.,-1.,0.));
#137=DIRECTION('ref_axis',(1.,0.,0.));
#138=DIRECTION('center_axis',(0.,-1.,0.));
#139=DIRECTION('ref_axis',(1.,0.,0.));
#140=DIRECTION('',(0.,1.,0.));
#141=DIRECTION('center_axis',(0.,1.,0.));
#142=DIRECTION('ref_axis',(1.,0.,0.));
#143=DIRECTION('center_axis',(0.,-1.,0.));
#144=DIRECTION('ref_axis',(1.,0.,0.));
#145=DIRECTION('center_axis',(0.,1.,0.));
#146=DIRECTION('ref_axis',(1.,0.,0.));
#147=DIRECTION('center_axis',(0.,1.,0.));
#148=DIRECTION('ref_axis',(1.,0.,0.));
#149=DIRECTION('center_axis',(0.,1.,0.));
#150=DIRECTION('ref_axis',(1.,0.,0.));
#151=DIRECTION('',(0.,-1.,0.));
#152=CARTESIAN_POINT('',(0.,0.,0.));
#153=CARTESIAN_POINT('Origin',(45.,300.,50.));
#154=CARTESIAN_POINT('',(60.,540.,50.));
#155=CARTESIAN_POINT('Origin',(45.,540.,50.));
#156=CARTESIAN_POINT('',(60.,300.,50.));
#157=CARTESIAN_POINT('',(60.,300.,50.));
#158=CARTESIAN_POINT('',(30.,300.,50.));
#159=CARTESIAN_POINT('Origin',(45.,300.,50.));
#160=CARTESIAN_POINT('Origin',(45.,300.,50.));
#161=CARTESIAN_POINT('Origin',(45.,540.,50.));
#162=CARTESIAN_POINT('Origin',(50.,300.,50.));
#163=CARTESIAN_POINT('Origin',(50.,300.,50.));
#164=CARTESIAN_POINT('Origin',(45.,0.,50.));
#165=CARTESIAN_POINT('',(30.,-240.,50.));
#166=CARTESIAN_POINT('Origin',(45.,-240.,50.));
#167=CARTESIAN_POINT('',(30.,0.,50.));
#168=CARTESIAN_POINT('',(30.,0.,50.));
#169=CARTESIAN_POINT('Origin',(45.,0.,50.));
#170=CARTESIAN_POINT('Origin',(45.,-240.,50.));
#171=CARTESIAN_POINT('Origin',(50.,0.,50.));
#172=CARTESIAN_POINT('Origin',(50.,0.,50.));
#173=CARTESIAN_POINT('Origin',(50.,0.,50.));
#174=CARTESIAN_POINT('',(30.,0.,50.));
#175=UNCERTAINTY_MEASURE_WITH_UNIT(LENGTH_MEASURE(0.01),#179,
'DISTANCE_ACCURACY_VALUE',
'Maximum model space distance between geometric entities at asserted c
onnectivities');
#176=UNCERTAINTY_MEASURE_WITH_UNIT(LENGTH_MEASURE(0.01),#179,
'DISTANCE_ACCURACY_VALUE',
'Maximum model space distance between geometric entities at asserted c
onnectivities');
#177=(
GEOMETRIC_REPRESENTATION_CONTEXT(3)
GLOBAL_UNCERTAINTY_ASSIGNED_CONTEXT((#175))
GLOBAL_UNIT_ASSIGNED_CONTEXT((#179,#181,#182))
REPRESENTATION_CONTEXT('','3D')
);
#178=(
GEOMETRIC_REPRESENTATION_CONTEXT(3)
GLOBAL_UNCERTAINTY_ASSIGNED_CONTEXT((#176))
GLOBAL_UNIT_ASSIGNED_CONTEXT((#179,#181,#182))
REPRESENTATION_CONTEXT('','3D')
);
#179=(
LENGTH_UNIT()
NAMED_UNIT(*)
SI_UNIT(.MILLI.,.METRE.)
);
#180=(
LENGTH_UNIT()
NAMED_UNIT(*)
SI_UNIT($,.METRE.)
);
#181=(
NAMED_UNIT(*)
PLANE_ANGLE_UNIT()
SI_UNIT($,.RADIAN.)
);
#182=(
NAMED_UNIT(*)
SI_UNIT($,.STERADIAN.)
SOLID_ANGLE_UNIT()
);
#183=SHAPE_DEFINITION_REPRESENTATION(#184,#185);
#184=PRODUCT_DEFINITION_SHAPE('',$,#187);
#185=SHAPE_REPRESENTATION('',(#104),#177);
#186=PRODUCT_DEFINITION_CONTEXT('part definition',#191,'design');
#187=PRODUCT_DEFINITION('arbre excentrique','arbre excentrique v2',#188,
#186);
#188=PRODUCT_DEFINITION_FORMATION('',$,#193);
#189=PRODUCT_RELATED_PRODUCT_CATEGORY('arbre excentrique v2',
'arbre excentrique v2',(#193));
#190=APPLICATION_PROTOCOL_DEFINITION('international standard',
'automotive_design',2009,#191);
#191=APPLICATION_CONTEXT(
'Core Data for Automotive Mechanical Design Process');
#192=PRODUCT_CONTEXT('part definition',#191,'mechanical');
#193=PRODUCT('arbre excentrique','arbre excentrique v2',$,(#192));
#194=PRESENTATION_STYLE_ASSIGNMENT((#195));
#195=SURFACE_STYLE_USAGE(.BOTH.,#196);
#196=SURFACE_SIDE_STYLE('',(#197));
#197=SURFACE_STYLE_FILL_AREA(#198);
#198=FILL_AREA_STYLE('Acier - Satin\X\E9',(#199));
#199=FILL_AREA_STYLE_COLOUR('Acier - Satin\X\E9',#200);
#200=COLOUR_RGB('Acier - Satin\X\E9',0.627450980392157,0.627450980392157,
0.627450980392157);
ENDSEC;
END-ISO-10303-21;
