ISO-10303-21;
HEADER;
/* Generated by software containing ST-Developer
 * from STEP Tools, Inc. (www.steptools.com) 
 */

FILE_DESCRIPTION(
/* description */ (''),
/* implementation_level */ '2;1');

FILE_NAME(
/* name */ 
'D:/PLASMA/0-ReFlexLab/2 - Labo/1 - Hardware/Forest PUMP V2/ForestPUMP
 - Cl\X\E9 de couplage.step',
/* time_stamp */ '2022-09-30T15:57:16+02:00',
/* author */ (''),
/* organization */ (''),
/* preprocessor_version */ 'ST-DEVELOPER v19',
/* originating_system */ 'Autodesk Translation Framework v11.7.0.108',
/* authorisation */ '');

FILE_SCHEMA (('AUTOMOTIVE_DESIGN { 1 0 10303 214 3 1 1 }'));
ENDSEC;

DATA;
#10=MECHANICAL_DESIGN_GEOMETRIC_PRESENTATION_REPRESENTATION('',(#13),#503);
#11=SHAPE_REPRESENTATION_RELATIONSHIP('SRR','None',#510,#12);
#12=ADVANCED_BREP_SHAPE_REPRESENTATION('',(#14),#502);
#13=STYLED_ITEM('',(#520),#14);
#14=MANIFOLD_SOLID_BREP('Corps1',#291);
#15=CYLINDRICAL_SURFACE('',#317,3.025);
#16=CYLINDRICAL_SURFACE('',#319,3.025);
#17=CYLINDRICAL_SURFACE('',#321,3.025);
#18=CYLINDRICAL_SURFACE('',#323,3.025);
#19=CYLINDRICAL_SURFACE('',#325,3.025);
#20=CYLINDRICAL_SURFACE('',#327,3.025);
#21=CYLINDRICAL_SURFACE('',#329,26.);
#22=CYLINDRICAL_SURFACE('',#333,8.5);
#23=CYLINDRICAL_SURFACE('',#336,12.45);
#24=FACE_BOUND('',#55,.T.);
#25=FACE_BOUND('',#57,.T.);
#26=FACE_BOUND('',#58,.T.);
#27=FACE_BOUND('',#59,.T.);
#28=FACE_BOUND('',#60,.T.);
#29=FACE_BOUND('',#61,.T.);
#30=FACE_BOUND('',#62,.T.);
#31=FACE_BOUND('',#63,.T.);
#32=FACE_BOUND('',#72,.T.);
#33=FACE_BOUND('',#73,.T.);
#34=FACE_BOUND('',#74,.T.);
#35=FACE_BOUND('',#75,.T.);
#36=FACE_BOUND('',#76,.T.);
#37=FACE_BOUND('',#77,.T.);
#38=FACE_BOUND('',#78,.T.);
#39=FACE_OUTER_BOUND('',#54,.T.);
#40=FACE_OUTER_BOUND('',#56,.T.);
#41=FACE_OUTER_BOUND('',#64,.T.);
#42=FACE_OUTER_BOUND('',#65,.T.);
#43=FACE_OUTER_BOUND('',#66,.T.);
#44=FACE_OUTER_BOUND('',#67,.T.);
#45=FACE_OUTER_BOUND('',#68,.T.);
#46=FACE_OUTER_BOUND('',#69,.T.);
#47=FACE_OUTER_BOUND('',#70,.T.);
#48=FACE_OUTER_BOUND('',#71,.T.);
#49=FACE_OUTER_BOUND('',#79,.T.);
#50=FACE_OUTER_BOUND('',#80,.T.);
#51=FACE_OUTER_BOUND('',#81,.T.);
#52=FACE_OUTER_BOUND('',#82,.T.);
#53=FACE_OUTER_BOUND('',#83,.T.);
#54=EDGE_LOOP('',(#198,#199,#200,#201));
#55=EDGE_LOOP('',(#202));
#56=EDGE_LOOP('',(#203));
#57=EDGE_LOOP('',(#204));
#58=EDGE_LOOP('',(#205));
#59=EDGE_LOOP('',(#206));
#60=EDGE_LOOP('',(#207));
#61=EDGE_LOOP('',(#208));
#62=EDGE_LOOP('',(#209));
#63=EDGE_LOOP('',(#210,#211,#212,#213));
#64=EDGE_LOOP('',(#214,#215,#216,#217));
#65=EDGE_LOOP('',(#218,#219,#220,#221));
#66=EDGE_LOOP('',(#222,#223,#224,#225));
#67=EDGE_LOOP('',(#226,#227,#228,#229));
#68=EDGE_LOOP('',(#230,#231,#232,#233));
#69=EDGE_LOOP('',(#234,#235,#236,#237));
#70=EDGE_LOOP('',(#238,#239,#240,#241));
#71=EDGE_LOOP('',(#242));
#72=EDGE_LOOP('',(#243));
#73=EDGE_LOOP('',(#244));
#74=EDGE_LOOP('',(#245));
#75=EDGE_LOOP('',(#246));
#76=EDGE_LOOP('',(#247));
#77=EDGE_LOOP('',(#248));
#78=EDGE_LOOP('',(#249));
#79=EDGE_LOOP('',(#250,#251,#252,#253));
#80=EDGE_LOOP('',(#254,#255,#256,#257));
#81=EDGE_LOOP('',(#258,#259,#260,#261));
#82=EDGE_LOOP('',(#262,#263,#264,#265));
#83=EDGE_LOOP('',(#266,#267,#268,#269));
#84=CIRCLE('',#306,12.45);
#85=CIRCLE('',#307,8.5);
#86=CIRCLE('',#309,26.);
#87=CIRCLE('',#310,3.025);
#88=CIRCLE('',#311,3.025);
#89=CIRCLE('',#312,3.025);
#90=CIRCLE('',#313,3.025);
#91=CIRCLE('',#314,3.025);
#92=CIRCLE('',#315,3.025);
#93=CIRCLE('',#316,12.45);
#94=CIRCLE('',#318,3.025);
#95=CIRCLE('',#320,3.025);
#96=CIRCLE('',#322,3.025);
#97=CIRCLE('',#324,3.025);
#98=CIRCLE('',#326,3.025);
#99=CIRCLE('',#328,3.025);
#100=CIRCLE('',#330,26.);
#101=CIRCLE('',#332,8.5);
#102=LINE('',#428,#120);
#103=LINE('',#432,#121);
#104=LINE('',#433,#122);
#105=LINE('',#453,#123);
#106=LINE('',#455,#124);
#107=LINE('',#458,#125);
#108=LINE('',#462,#126);
#109=LINE('',#466,#127);
#110=LINE('',#470,#128);
#111=LINE('',#474,#129);
#112=LINE('',#478,#130);
#113=LINE('',#482,#131);
#114=LINE('',#486,#132);
#115=LINE('',#491,#133);
#116=LINE('',#493,#134);
#117=LINE('',#494,#135);
#118=LINE('',#496,#136);
#119=LINE('',#498,#137);
#120=VECTOR('',#342,10.);
#121=VECTOR('',#345,10.);
#122=VECTOR('',#346,10.);
#123=VECTOR('',#365,10.);
#124=VECTOR('',#366,10.);
#125=VECTOR('',#369,10.);
#126=VECTOR('',#374,3.025);
#127=VECTOR('',#379,3.025);
#128=VECTOR('',#384,3.025);
#129=VECTOR('',#389,3.025);
#130=VECTOR('',#394,3.025);
#131=VECTOR('',#399,3.025);
#132=VECTOR('',#404,26.);
#133=VECTOR('',#411,8.5);
#134=VECTOR('',#414,10.);
#135=VECTOR('',#415,10.);
#136=VECTOR('',#418,10.);
#137=VECTOR('',#421,10.);
#138=VERTEX_POINT('',#426);
#139=VERTEX_POINT('',#427);
#140=VERTEX_POINT('',#429);
#141=VERTEX_POINT('',#431);
#142=VERTEX_POINT('',#434);
#143=VERTEX_POINT('',#437);
#144=VERTEX_POINT('',#439);
#145=VERTEX_POINT('',#441);
#146=VERTEX_POINT('',#443);
#147=VERTEX_POINT('',#445);
#148=VERTEX_POINT('',#447);
#149=VERTEX_POINT('',#449);
#150=VERTEX_POINT('',#451);
#151=VERTEX_POINT('',#452);
#152=VERTEX_POINT('',#454);
#153=VERTEX_POINT('',#456);
#154=VERTEX_POINT('',#460);
#155=VERTEX_POINT('',#464);
#156=VERTEX_POINT('',#468);
#157=VERTEX_POINT('',#472);
#158=VERTEX_POINT('',#476);
#159=VERTEX_POINT('',#480);
#160=VERTEX_POINT('',#484);
#161=VERTEX_POINT('',#488);
#162=EDGE_CURVE('',#138,#139,#102,.T.);
#163=EDGE_CURVE('',#139,#140,#84,.T.);
#164=EDGE_CURVE('',#140,#141,#103,.T.);
#165=EDGE_CURVE('',#141,#138,#104,.T.);
#166=EDGE_CURVE('',#142,#142,#85,.T.);
#167=EDGE_CURVE('',#143,#143,#86,.T.);
#168=EDGE_CURVE('',#144,#144,#87,.T.);
#169=EDGE_CURVE('',#145,#145,#88,.T.);
#170=EDGE_CURVE('',#146,#146,#89,.T.);
#171=EDGE_CURVE('',#147,#147,#90,.T.);
#172=EDGE_CURVE('',#148,#148,#91,.T.);
#173=EDGE_CURVE('',#149,#149,#92,.T.);
#174=EDGE_CURVE('',#150,#151,#105,.T.);
#175=EDGE_CURVE('',#151,#152,#106,.T.);
#176=EDGE_CURVE('',#153,#152,#93,.T.);
#177=EDGE_CURVE('',#150,#153,#107,.T.);
#178=EDGE_CURVE('',#154,#154,#94,.T.);
#179=EDGE_CURVE('',#154,#144,#108,.T.);
#180=EDGE_CURVE('',#155,#155,#95,.T.);
#181=EDGE_CURVE('',#155,#145,#109,.T.);
#182=EDGE_CURVE('',#156,#156,#96,.T.);
#183=EDGE_CURVE('',#156,#146,#110,.T.);
#184=EDGE_CURVE('',#157,#157,#97,.T.);
#185=EDGE_CURVE('',#157,#147,#111,.T.);
#186=EDGE_CURVE('',#158,#158,#98,.T.);
#187=EDGE_CURVE('',#158,#148,#112,.T.);
#188=EDGE_CURVE('',#159,#159,#99,.T.);
#189=EDGE_CURVE('',#159,#149,#113,.T.);
#190=EDGE_CURVE('',#160,#160,#100,.T.);
#191=EDGE_CURVE('',#160,#143,#114,.T.);
#192=EDGE_CURVE('',#161,#161,#101,.T.);
#193=EDGE_CURVE('',#142,#161,#115,.T.);
#194=EDGE_CURVE('',#150,#138,#116,.T.);
#195=EDGE_CURVE('',#151,#141,#117,.T.);
#196=EDGE_CURVE('',#152,#140,#118,.T.);
#197=EDGE_CURVE('',#153,#139,#119,.T.);
#198=ORIENTED_EDGE('',*,*,#162,.T.);
#199=ORIENTED_EDGE('',*,*,#163,.T.);
#200=ORIENTED_EDGE('',*,*,#164,.T.);
#201=ORIENTED_EDGE('',*,*,#165,.T.);
#202=ORIENTED_EDGE('',*,*,#166,.T.);
#203=ORIENTED_EDGE('',*,*,#167,.T.);
#204=ORIENTED_EDGE('',*,*,#168,.T.);
#205=ORIENTED_EDGE('',*,*,#169,.T.);
#206=ORIENTED_EDGE('',*,*,#170,.T.);
#207=ORIENTED_EDGE('',*,*,#171,.T.);
#208=ORIENTED_EDGE('',*,*,#172,.T.);
#209=ORIENTED_EDGE('',*,*,#173,.T.);
#210=ORIENTED_EDGE('',*,*,#174,.T.);
#211=ORIENTED_EDGE('',*,*,#175,.T.);
#212=ORIENTED_EDGE('',*,*,#176,.F.);
#213=ORIENTED_EDGE('',*,*,#177,.F.);
#214=ORIENTED_EDGE('',*,*,#178,.F.);
#215=ORIENTED_EDGE('',*,*,#179,.T.);
#216=ORIENTED_EDGE('',*,*,#168,.F.);
#217=ORIENTED_EDGE('',*,*,#179,.F.);
#218=ORIENTED_EDGE('',*,*,#180,.F.);
#219=ORIENTED_EDGE('',*,*,#181,.T.);
#220=ORIENTED_EDGE('',*,*,#169,.F.);
#221=ORIENTED_EDGE('',*,*,#181,.F.);
#222=ORIENTED_EDGE('',*,*,#182,.F.);
#223=ORIENTED_EDGE('',*,*,#183,.T.);
#224=ORIENTED_EDGE('',*,*,#170,.F.);
#225=ORIENTED_EDGE('',*,*,#183,.F.);
#226=ORIENTED_EDGE('',*,*,#184,.F.);
#227=ORIENTED_EDGE('',*,*,#185,.T.);
#228=ORIENTED_EDGE('',*,*,#171,.F.);
#229=ORIENTED_EDGE('',*,*,#185,.F.);
#230=ORIENTED_EDGE('',*,*,#186,.F.);
#231=ORIENTED_EDGE('',*,*,#187,.T.);
#232=ORIENTED_EDGE('',*,*,#172,.F.);
#233=ORIENTED_EDGE('',*,*,#187,.F.);
#234=ORIENTED_EDGE('',*,*,#188,.F.);
#235=ORIENTED_EDGE('',*,*,#189,.T.);
#236=ORIENTED_EDGE('',*,*,#173,.F.);
#237=ORIENTED_EDGE('',*,*,#189,.F.);
#238=ORIENTED_EDGE('',*,*,#190,.F.);
#239=ORIENTED_EDGE('',*,*,#191,.T.);
#240=ORIENTED_EDGE('',*,*,#167,.F.);
#241=ORIENTED_EDGE('',*,*,#191,.F.);
#242=ORIENTED_EDGE('',*,*,#190,.T.);
#243=ORIENTED_EDGE('',*,*,#192,.T.);
#244=ORIENTED_EDGE('',*,*,#188,.T.);
#245=ORIENTED_EDGE('',*,*,#186,.T.);
#246=ORIENTED_EDGE('',*,*,#184,.T.);
#247=ORIENTED_EDGE('',*,*,#182,.T.);
#248=ORIENTED_EDGE('',*,*,#180,.T.);
#249=ORIENTED_EDGE('',*,*,#178,.T.);
#250=ORIENTED_EDGE('',*,*,#166,.F.);
#251=ORIENTED_EDGE('',*,*,#193,.T.);
#252=ORIENTED_EDGE('',*,*,#192,.F.);
#253=ORIENTED_EDGE('',*,*,#193,.F.);
#254=ORIENTED_EDGE('',*,*,#174,.F.);
#255=ORIENTED_EDGE('',*,*,#194,.T.);
#256=ORIENTED_EDGE('',*,*,#165,.F.);
#257=ORIENTED_EDGE('',*,*,#195,.F.);
#258=ORIENTED_EDGE('',*,*,#175,.F.);
#259=ORIENTED_EDGE('',*,*,#195,.T.);
#260=ORIENTED_EDGE('',*,*,#164,.F.);
#261=ORIENTED_EDGE('',*,*,#196,.F.);
#262=ORIENTED_EDGE('',*,*,#176,.T.);
#263=ORIENTED_EDGE('',*,*,#196,.T.);
#264=ORIENTED_EDGE('',*,*,#163,.F.);
#265=ORIENTED_EDGE('',*,*,#197,.F.);
#266=ORIENTED_EDGE('',*,*,#177,.T.);
#267=ORIENTED_EDGE('',*,*,#197,.T.);
#268=ORIENTED_EDGE('',*,*,#162,.F.);
#269=ORIENTED_EDGE('',*,*,#194,.F.);
#270=PLANE('',#305);
#271=PLANE('',#308);
#272=PLANE('',#331);
#273=PLANE('',#334);
#274=PLANE('',#335);
#275=PLANE('',#337);
#276=ADVANCED_FACE('',(#39,#24),#270,.T.);
#277=ADVANCED_FACE('',(#40,#25,#26,#27,#28,#29,#30,#31),#271,.T.);
#278=ADVANCED_FACE('',(#41),#15,.F.);
#279=ADVANCED_FACE('',(#42),#16,.F.);
#280=ADVANCED_FACE('',(#43),#17,.F.);
#281=ADVANCED_FACE('',(#44),#18,.F.);
#282=ADVANCED_FACE('',(#45),#19,.F.);
#283=ADVANCED_FACE('',(#46),#20,.F.);
#284=ADVANCED_FACE('',(#47),#21,.T.);
#285=ADVANCED_FACE('',(#48,#32,#33,#34,#35,#36,#37,#38),#272,.F.);
#286=ADVANCED_FACE('',(#49),#22,.F.);
#287=ADVANCED_FACE('',(#50),#273,.T.);
#288=ADVANCED_FACE('',(#51),#274,.T.);
#289=ADVANCED_FACE('',(#52),#23,.T.);
#290=ADVANCED_FACE('',(#53),#275,.T.);
#291=CLOSED_SHELL('',(#276,#277,#278,#279,#280,#281,#282,#283,#284,#285,
#286,#287,#288,#289,#290));
#292=DERIVED_UNIT_ELEMENT(#294,1.);
#293=DERIVED_UNIT_ELEMENT(#505,-3.);
#294=(
MASS_UNIT()
NAMED_UNIT(*)
SI_UNIT(.KILO.,.GRAM.)
);
#295=DERIVED_UNIT((#292,#293));
#296=MEASURE_REPRESENTATION_ITEM('density measure',
POSITIVE_RATIO_MEASURE(7850.),#295);
#297=PROPERTY_DEFINITION_REPRESENTATION(#302,#299);
#298=PROPERTY_DEFINITION_REPRESENTATION(#303,#300);
#299=REPRESENTATION('material name',(#301),#502);
#300=REPRESENTATION('density',(#296),#502);
#301=DESCRIPTIVE_REPRESENTATION_ITEM('Acier','Acier');
#302=PROPERTY_DEFINITION('material property','material name',#512);
#303=PROPERTY_DEFINITION('material property','density of part',#512);
#304=AXIS2_PLACEMENT_3D('placement',#424,#338,#339);
#305=AXIS2_PLACEMENT_3D('',#425,#340,#341);
#306=AXIS2_PLACEMENT_3D('',#430,#343,#344);
#307=AXIS2_PLACEMENT_3D('',#435,#347,#348);
#308=AXIS2_PLACEMENT_3D('',#436,#349,#350);
#309=AXIS2_PLACEMENT_3D('',#438,#351,#352);
#310=AXIS2_PLACEMENT_3D('',#440,#353,#354);
#311=AXIS2_PLACEMENT_3D('',#442,#355,#356);
#312=AXIS2_PLACEMENT_3D('',#444,#357,#358);
#313=AXIS2_PLACEMENT_3D('',#446,#359,#360);
#314=AXIS2_PLACEMENT_3D('',#448,#361,#362);
#315=AXIS2_PLACEMENT_3D('',#450,#363,#364);
#316=AXIS2_PLACEMENT_3D('',#457,#367,#368);
#317=AXIS2_PLACEMENT_3D('',#459,#370,#371);
#318=AXIS2_PLACEMENT_3D('',#461,#372,#373);
#319=AXIS2_PLACEMENT_3D('',#463,#375,#376);
#320=AXIS2_PLACEMENT_3D('',#465,#377,#378);
#321=AXIS2_PLACEMENT_3D('',#467,#380,#381);
#322=AXIS2_PLACEMENT_3D('',#469,#382,#383);
#323=AXIS2_PLACEMENT_3D('',#471,#385,#386);
#324=AXIS2_PLACEMENT_3D('',#473,#387,#388);
#325=AXIS2_PLACEMENT_3D('',#475,#390,#391);
#326=AXIS2_PLACEMENT_3D('',#477,#392,#393);
#327=AXIS2_PLACEMENT_3D('',#479,#395,#396);
#328=AXIS2_PLACEMENT_3D('',#481,#397,#398);
#329=AXIS2_PLACEMENT_3D('',#483,#400,#401);
#330=AXIS2_PLACEMENT_3D('',#485,#402,#403);
#331=AXIS2_PLACEMENT_3D('',#487,#405,#406);
#332=AXIS2_PLACEMENT_3D('',#489,#407,#408);
#333=AXIS2_PLACEMENT_3D('',#490,#409,#410);
#334=AXIS2_PLACEMENT_3D('',#492,#412,#413);
#335=AXIS2_PLACEMENT_3D('',#495,#416,#417);
#336=AXIS2_PLACEMENT_3D('',#497,#419,#420);
#337=AXIS2_PLACEMENT_3D('',#499,#422,#423);
#338=DIRECTION('axis',(0.,0.,1.));
#339=DIRECTION('refdir',(1.,0.,0.));
#340=DIRECTION('center_axis',(0.,0.,1.));
#341=DIRECTION('ref_axis',(1.,0.,0.));
#342=DIRECTION('',(-2.8821568747367E-15,1.,0.));
#343=DIRECTION('center_axis',(0.,0.,1.));
#344=DIRECTION('ref_axis',(1.,0.,0.));
#345=DIRECTION('',(-4.80359479122785E-16,-1.,0.));
#346=DIRECTION('',(1.,0.,0.));
#347=DIRECTION('center_axis',(0.,0.,-1.));
#348=DIRECTION('ref_axis',(1.,0.,0.));
#349=DIRECTION('center_axis',(0.,0.,1.));
#350=DIRECTION('ref_axis',(1.,0.,0.));
#351=DIRECTION('center_axis',(0.,0.,1.));
#352=DIRECTION('ref_axis',(1.,0.,0.));
#353=DIRECTION('center_axis',(0.,0.,-1.));
#354=DIRECTION('ref_axis',(1.,0.,0.));
#355=DIRECTION('center_axis',(0.,0.,-1.));
#356=DIRECTION('ref_axis',(1.,0.,0.));
#357=DIRECTION('center_axis',(0.,0.,-1.));
#358=DIRECTION('ref_axis',(1.,0.,0.));
#359=DIRECTION('center_axis',(0.,0.,-1.));
#360=DIRECTION('ref_axis',(1.,0.,0.));
#361=DIRECTION('center_axis',(0.,0.,-1.));
#362=DIRECTION('ref_axis',(1.,0.,0.));
#363=DIRECTION('center_axis',(0.,0.,-1.));
#364=DIRECTION('ref_axis',(1.,0.,0.));
#365=DIRECTION('',(-1.,0.,0.));
#366=DIRECTION('',(4.80359479122785E-16,1.,0.));
#367=DIRECTION('center_axis',(0.,0.,1.));
#368=DIRECTION('ref_axis',(1.,0.,0.));
#369=DIRECTION('',(-2.8821568747367E-15,1.,0.));
#370=DIRECTION('center_axis',(0.,0.,-1.));
#371=DIRECTION('ref_axis',(1.,0.,0.));
#372=DIRECTION('center_axis',(0.,0.,1.));
#373=DIRECTION('ref_axis',(1.,0.,0.));
#374=DIRECTION('',(0.,0.,1.));
#375=DIRECTION('center_axis',(0.,0.,-1.));
#376=DIRECTION('ref_axis',(1.,0.,0.));
#377=DIRECTION('center_axis',(0.,0.,1.));
#378=DIRECTION('ref_axis',(1.,0.,0.));
#379=DIRECTION('',(0.,0.,1.));
#380=DIRECTION('center_axis',(0.,0.,-1.));
#381=DIRECTION('ref_axis',(1.,0.,0.));
#382=DIRECTION('center_axis',(0.,0.,1.));
#383=DIRECTION('ref_axis',(1.,0.,0.));
#384=DIRECTION('',(0.,0.,1.));
#385=DIRECTION('center_axis',(0.,0.,-1.));
#386=DIRECTION('ref_axis',(1.,0.,0.));
#387=DIRECTION('center_axis',(0.,0.,1.));
#388=DIRECTION('ref_axis',(1.,0.,0.));
#389=DIRECTION('',(0.,0.,1.));
#390=DIRECTION('center_axis',(0.,0.,-1.));
#391=DIRECTION('ref_axis',(1.,0.,0.));
#392=DIRECTION('center_axis',(0.,0.,1.));
#393=DIRECTION('ref_axis',(1.,0.,0.));
#394=DIRECTION('',(0.,0.,1.));
#395=DIRECTION('center_axis',(0.,0.,-1.));
#396=DIRECTION('ref_axis',(1.,0.,0.));
#397=DIRECTION('center_axis',(0.,0.,1.));
#398=DIRECTION('ref_axis',(1.,0.,0.));
#399=DIRECTION('',(0.,0.,1.));
#400=DIRECTION('center_axis',(0.,0.,-1.));
#401=DIRECTION('ref_axis',(1.,0.,0.));
#402=DIRECTION('center_axis',(0.,0.,-1.));
#403=DIRECTION('ref_axis',(1.,0.,0.));
#404=DIRECTION('',(0.,0.,1.));
#405=DIRECTION('center_axis',(0.,0.,1.));
#406=DIRECTION('ref_axis',(1.,0.,0.));
#407=DIRECTION('center_axis',(0.,0.,1.));
#408=DIRECTION('ref_axis',(1.,0.,0.));
#409=DIRECTION('center_axis',(0.,0.,1.));
#410=DIRECTION('ref_axis',(1.,0.,0.));
#411=DIRECTION('',(0.,0.,-1.));
#412=DIRECTION('center_axis',(0.,-1.,0.));
#413=DIRECTION('ref_axis',(1.,0.,0.));
#414=DIRECTION('',(0.,0.,1.));
#415=DIRECTION('',(0.,0.,1.));
#416=DIRECTION('center_axis',(-1.,4.80359479122785E-16,0.));
#417=DIRECTION('ref_axis',(-4.80359479122785E-16,-1.,0.));
#418=DIRECTION('',(0.,0.,1.));
#419=DIRECTION('center_axis',(0.,0.,1.));
#420=DIRECTION('ref_axis',(-8.26946079742757E-16,1.,0.));
#421=DIRECTION('',(0.,0.,1.));
#422=DIRECTION('center_axis',(1.,2.8821568747367E-15,0.));
#423=DIRECTION('ref_axis',(-2.8821568747367E-15,1.,0.));
#424=CARTESIAN_POINT('',(0.,0.,0.));
#425=CARTESIAN_POINT('Origin',(0.,-1.55,36.));
#426=CARTESIAN_POINT('',(3.00000000000001,-15.55,36.));
#427=CARTESIAN_POINT('',(3.,-12.0831494238879,36.));
#428=CARTESIAN_POINT('',(3.00000000000001,-15.55,36.));
#429=CARTESIAN_POINT('',(-2.99999999999998,-12.0831494238879,36.));
#430=CARTESIAN_POINT('Origin',(0.,0.,36.));
#431=CARTESIAN_POINT('',(-2.99999999999999,-15.55,36.));
#432=CARTESIAN_POINT('',(-2.99999999999999,-15.55,36.));
#433=CARTESIAN_POINT('',(3.00000000000001,-15.55,36.));
#434=CARTESIAN_POINT('',(-8.5,-1.04094977927525E-15,36.));
#435=CARTESIAN_POINT('Origin',(0.,0.,36.));
#436=CARTESIAN_POINT('Origin',(0.,0.,0.));
#437=CARTESIAN_POINT('',(-26.,-3.18408167778312E-15,0.));
#438=CARTESIAN_POINT('Origin',(0.,0.,0.));
#439=CARTESIAN_POINT('',(-12.525,16.4544826719043,0.));
#440=CARTESIAN_POINT('Origin',(-9.5,16.4544826719043,0.));
#441=CARTESIAN_POINT('',(-12.525,-16.4544826719043,0.));
#442=CARTESIAN_POINT('Origin',(-9.5,-16.4544826719043,0.));
#443=CARTESIAN_POINT('',(6.475,-16.4544826719043,0.));
#444=CARTESIAN_POINT('Origin',(9.49999999999999,-16.4544826719043,0.));
#445=CARTESIAN_POINT('',(-22.025,1.86823811085114E-15,0.));
#446=CARTESIAN_POINT('Origin',(-19.,2.23869376759321E-15,0.));
#447=CARTESIAN_POINT('',(15.975,-9.12123510946193E-15,0.));
#448=CARTESIAN_POINT('Origin',(19.,-8.75077945271986E-15,0.));
#449=CARTESIAN_POINT('',(6.47500000000001,16.4544826719043,0.));
#450=CARTESIAN_POINT('Origin',(9.50000000000001,16.4544826719043,0.));
#451=CARTESIAN_POINT('',(3.00000000000001,-15.55,0.));
#452=CARTESIAN_POINT('',(-2.99999999999999,-15.55,0.));
#453=CARTESIAN_POINT('',(3.00000000000001,-15.55,0.));
#454=CARTESIAN_POINT('',(-2.99999999999999,-12.0831494238879,0.));
#455=CARTESIAN_POINT('',(-2.99999999999999,-15.55,0.));
#456=CARTESIAN_POINT('',(3.,-12.0831494238879,0.));
#457=CARTESIAN_POINT('Origin',(0.,0.,0.));
#458=CARTESIAN_POINT('',(3.00000000000001,-15.55,0.));
#459=CARTESIAN_POINT('Origin',(-9.5,16.4544826719043,0.));
#460=CARTESIAN_POINT('',(-12.525,16.4544826719043,-5.));
#461=CARTESIAN_POINT('Origin',(-9.5,16.4544826719043,-5.));
#462=CARTESIAN_POINT('',(-12.525,16.4544826719043,0.));
#463=CARTESIAN_POINT('Origin',(-9.5,-16.4544826719043,0.));
#464=CARTESIAN_POINT('',(-12.525,-16.4544826719043,-5.));
#465=CARTESIAN_POINT('Origin',(-9.5,-16.4544826719043,-5.));
#466=CARTESIAN_POINT('',(-12.525,-16.4544826719043,0.));
#467=CARTESIAN_POINT('Origin',(9.49999999999999,-16.4544826719043,0.));
#468=CARTESIAN_POINT('',(6.475,-16.4544826719043,-5.));
#469=CARTESIAN_POINT('Origin',(9.49999999999999,-16.4544826719043,-5.));
#470=CARTESIAN_POINT('',(6.475,-16.4544826719043,0.));
#471=CARTESIAN_POINT('Origin',(-19.,2.23869376759321E-15,0.));
#472=CARTESIAN_POINT('',(-22.025,1.86823811085114E-15,-5.));
#473=CARTESIAN_POINT('Origin',(-19.,2.23869376759321E-15,-5.));
#474=CARTESIAN_POINT('',(-22.025,2.60914942433529E-15,0.));
#475=CARTESIAN_POINT('Origin',(19.,-8.75077945271986E-15,0.));
#476=CARTESIAN_POINT('',(15.975,-9.12123510946193E-15,-5.));
#477=CARTESIAN_POINT('Origin',(19.,-8.75077945271986E-15,-5.));
#478=CARTESIAN_POINT('',(15.975,-8.38032379597778E-15,0.));
#479=CARTESIAN_POINT('Origin',(9.50000000000001,16.4544826719043,0.));
#480=CARTESIAN_POINT('',(6.47500000000001,16.4544826719043,-5.));
#481=CARTESIAN_POINT('Origin',(9.50000000000001,16.4544826719043,-5.));
#482=CARTESIAN_POINT('',(6.47500000000001,16.4544826719043,0.));
#483=CARTESIAN_POINT('Origin',(0.,0.,0.));
#484=CARTESIAN_POINT('',(-26.,-3.18408167778312E-15,-5.));
#485=CARTESIAN_POINT('Origin',(0.,0.,-5.));
#486=CARTESIAN_POINT('',(-26.,3.18408167778312E-15,0.));
#487=CARTESIAN_POINT('Origin',(0.,0.,-5.));
#488=CARTESIAN_POINT('',(-8.5,-1.04094977927525E-15,-5.));
#489=CARTESIAN_POINT('Origin',(0.,0.,-5.));
#490=CARTESIAN_POINT('Origin',(0.,0.,0.));
#491=CARTESIAN_POINT('',(-8.5,-1.04094977927525E-15,0.));
#492=CARTESIAN_POINT('Origin',(-2.99999999999999,-15.55,0.));
#493=CARTESIAN_POINT('',(3.00000000000001,-15.55,0.));
#494=CARTESIAN_POINT('',(-2.99999999999999,-15.55,0.));
#495=CARTESIAN_POINT('Origin',(-2.99999999999999,-12.0831494238879,0.));
#496=CARTESIAN_POINT('',(-2.99999999999999,-12.0831494238879,0.));
#497=CARTESIAN_POINT('Origin',(0.,0.,0.));
#498=CARTESIAN_POINT('',(3.,-12.0831494238879,0.));
#499=CARTESIAN_POINT('Origin',(3.00000000000001,-15.55,0.));
#500=UNCERTAINTY_MEASURE_WITH_UNIT(LENGTH_MEASURE(0.01),#504,
'DISTANCE_ACCURACY_VALUE',
'Maximum model space distance between geometric entities at asserted c
onnectivities');
#501=UNCERTAINTY_MEASURE_WITH_UNIT(LENGTH_MEASURE(0.01),#504,
'DISTANCE_ACCURACY_VALUE',
'Maximum model space distance between geometric entities at asserted c
onnectivities');
#502=(
GEOMETRIC_REPRESENTATION_CONTEXT(3)
GLOBAL_UNCERTAINTY_ASSIGNED_CONTEXT((#500))
GLOBAL_UNIT_ASSIGNED_CONTEXT((#504,#506,#507))
REPRESENTATION_CONTEXT('','3D')
);
#503=(
GEOMETRIC_REPRESENTATION_CONTEXT(3)
GLOBAL_UNCERTAINTY_ASSIGNED_CONTEXT((#501))
GLOBAL_UNIT_ASSIGNED_CONTEXT((#504,#506,#507))
REPRESENTATION_CONTEXT('','3D')
);
#504=(
LENGTH_UNIT()
NAMED_UNIT(*)
SI_UNIT(.MILLI.,.METRE.)
);
#505=(
LENGTH_UNIT()
NAMED_UNIT(*)
SI_UNIT($,.METRE.)
);
#506=(
NAMED_UNIT(*)
PLANE_ANGLE_UNIT()
SI_UNIT($,.RADIAN.)
);
#507=(
NAMED_UNIT(*)
SI_UNIT($,.STERADIAN.)
SOLID_ANGLE_UNIT()
);
#508=SHAPE_DEFINITION_REPRESENTATION(#509,#510);
#509=PRODUCT_DEFINITION_SHAPE('',$,#512);
#510=SHAPE_REPRESENTATION('',(#304),#502);
#511=PRODUCT_DEFINITION_CONTEXT('part definition',#516,'design');
#512=PRODUCT_DEFINITION('ForestPUMP - Cl\X\E9 de couplage',
'ForestPUMP - Cl\X\E9 de couplage v6',#513,#511);
#513=PRODUCT_DEFINITION_FORMATION('',$,#518);
#514=PRODUCT_RELATED_PRODUCT_CATEGORY(
'ForestPUMP - Cl\X\E9 de couplage v6',
'ForestPUMP - Cl\X\E9 de couplage v6',(#518));
#515=APPLICATION_PROTOCOL_DEFINITION('international standard',
'automotive_design',2009,#516);
#516=APPLICATION_CONTEXT(
'Core Data for Automotive Mechanical Design Process');
#517=PRODUCT_CONTEXT('part definition',#516,'mechanical');
#518=PRODUCT('ForestPUMP - Cl\X\E9 de couplage',
'ForestPUMP - Cl\X\E9 de couplage v6',$,(#517));
#519=PRESENTATION_STYLE_ASSIGNMENT((#521));
#520=PRESENTATION_STYLE_ASSIGNMENT((#522));
#521=SURFACE_STYLE_USAGE(.BOTH.,#523);
#522=SURFACE_STYLE_USAGE(.BOTH.,#524);
#523=SURFACE_SIDE_STYLE('',(#525));
#524=SURFACE_SIDE_STYLE('',(#526));
#525=SURFACE_STYLE_FILL_AREA(#527);
#526=SURFACE_STYLE_FILL_AREA(#528);
#527=FILL_AREA_STYLE('Acier - Satin\X\E9',(#529));
#528=FILL_AREA_STYLE('Miroir',(#530));
#529=FILL_AREA_STYLE_COLOUR('Acier - Satin\X\E9',#531);
#530=FILL_AREA_STYLE_COLOUR('Miroir',#532);
#531=COLOUR_RGB('Acier - Satin\X\E9',0.627450980392157,0.627450980392157,
0.627450980392157);
#532=COLOUR_RGB('Miroir',0.96078431372549,0.96078431372549,0.964705882352941);
ENDSEC;
END-ISO-10303-21;
