ISO-10303-21;
HEADER;
FILE_DESCRIPTION(('FreeCAD Model'),'2;1');
FILE_NAME('Open CASCADE Shape Model','2022-09-15T11:52:29',('Author'),(
    ''),'Open CASCADE STEP processor 7.5','FreeCAD','Unknown');
FILE_SCHEMA(('AUTOMOTIVE_DESIGN { 1 0 10303 214 1 1 1 1 }'));
ENDSEC;
DATA;
#1 = APPLICATION_PROTOCOL_DEFINITION('international standard',
  'automotive_design',2000,#2);
#2 = APPLICATION_CONTEXT(
  'core data for automotive mechanical design processes');
#3 = SHAPE_DEFINITION_REPRESENTATION(#4,#10);
#4 = PRODUCT_DEFINITION_SHAPE('','',#5);
#5 = PRODUCT_DEFINITION('design','',#6,#9);
#6 = PRODUCT_DEFINITION_FORMATION('','',#7);
#7 = PRODUCT('Body','Body','',(#8));
#8 = PRODUCT_CONTEXT('',#2,'mechanical');
#9 = PRODUCT_DEFINITION_CONTEXT('part definition',#2,'design');
#10 = ADVANCED_BREP_SHAPE_REPRESENTATION('',(#11,#15),#433);
#11 = AXIS2_PLACEMENT_3D('',#12,#13,#14);
#12 = CARTESIAN_POINT('',(0.,0.,0.));
#13 = DIRECTION('',(0.,0.,1.));
#14 = DIRECTION('',(1.,0.,-0.));
#15 = MANIFOLD_SOLID_BREP('',#16);
#16 = CLOSED_SHELL('',(#17,#100,#142,#167,#192,#216,#240,#265,#299,#323,
    #346,#363,#388,#415,#424));
#17 = ADVANCED_FACE('',(#18),#95,.T.);
#18 = FACE_BOUND('',#19,.T.);
#19 = EDGE_LOOP('',(#20,#30,#39,#47,#55,#63,#71,#80,#88));
#20 = ORIENTED_EDGE('',*,*,#21,.T.);
#21 = EDGE_CURVE('',#22,#24,#26,.T.);
#22 = VERTEX_POINT('',#23);
#23 = CARTESIAN_POINT('',(42.5,10.,0.));
#24 = VERTEX_POINT('',#25);
#25 = CARTESIAN_POINT('',(4.229628648409,10.,0.));
#26 = LINE('',#27,#28);
#27 = CARTESIAN_POINT('',(44.,10.,0.));
#28 = VECTOR('',#29,1.);
#29 = DIRECTION('',(-1.,0.,0.));
#30 = ORIENTED_EDGE('',*,*,#31,.T.);
#31 = EDGE_CURVE('',#24,#32,#34,.T.);
#32 = VERTEX_POINT('',#33);
#33 = CARTESIAN_POINT('',(1.306518454053,12.325146836968,0.));
#34 = CIRCLE('',#35,3.);
#35 = AXIS2_PLACEMENT_3D('',#36,#37,#38);
#36 = CARTESIAN_POINT('',(4.229628648409,13.,0.));
#37 = DIRECTION('',(-0.,-0.,-1.));
#38 = DIRECTION('',(0.,-1.,0.));
#39 = ORIENTED_EDGE('',*,*,#40,.T.);
#40 = EDGE_CURVE('',#32,#41,#43,.T.);
#41 = VERTEX_POINT('',#42);
#42 = CARTESIAN_POINT('',(0.,17.9843,0.));
#43 = LINE('',#44,#45);
#44 = CARTESIAN_POINT('',(1.843320898406,10.,0.));
#45 = VECTOR('',#46,1.);
#46 = DIRECTION('',(-0.224951054344,0.974370064785,0.));
#47 = ORIENTED_EDGE('',*,*,#48,.T.);
#48 = EDGE_CURVE('',#41,#49,#51,.T.);
#49 = VERTEX_POINT('',#50);
#50 = CARTESIAN_POINT('',(7.256328791275,19.659555502256,
    8.881784197001E-16));
#51 = LINE('',#52,#53);
#52 = CARTESIAN_POINT('',(0.,17.9843,0.));
#53 = VECTOR('',#54,1.);
#54 = DIRECTION('',(0.974370064785,0.224951054344,0.));
#55 = ORIENTED_EDGE('',*,*,#56,.T.);
#56 = EDGE_CURVE('',#49,#57,#59,.T.);
#57 = VERTEX_POINT('',#58);
#58 = CARTESIAN_POINT('',(17.393907668346,22.,0.));
#59 = LINE('',#60,#61);
#60 = CARTESIAN_POINT('',(0.,17.9843,0.));
#61 = VECTOR('',#62,1.);
#62 = DIRECTION('',(0.974370064785,0.224951054344,0.));
#63 = ORIENTED_EDGE('',*,*,#64,.T.);
#64 = EDGE_CURVE('',#57,#65,#67,.T.);
#65 = VERTEX_POINT('',#66);
#66 = CARTESIAN_POINT('',(41.,22.,0.));
#67 = LINE('',#68,#69);
#68 = CARTESIAN_POINT('',(17.393907668346,22.,0.));
#69 = VECTOR('',#70,1.);
#70 = DIRECTION('',(1.,0.,0.));
#71 = ORIENTED_EDGE('',*,*,#72,.T.);
#72 = EDGE_CURVE('',#65,#73,#75,.T.);
#73 = VERTEX_POINT('',#74);
#74 = CARTESIAN_POINT('',(44.,19.,0.));
#75 = CIRCLE('',#76,3.);
#76 = AXIS2_PLACEMENT_3D('',#77,#78,#79);
#77 = CARTESIAN_POINT('',(41.,19.,0.));
#78 = DIRECTION('',(-0.,-0.,-1.));
#79 = DIRECTION('',(0.,-1.,0.));
#80 = ORIENTED_EDGE('',*,*,#81,.T.);
#81 = EDGE_CURVE('',#73,#82,#84,.T.);
#82 = VERTEX_POINT('',#83);
#83 = CARTESIAN_POINT('',(44.,11.5,0.));
#84 = LINE('',#85,#86);
#85 = CARTESIAN_POINT('',(44.,22.,0.));
#86 = VECTOR('',#87,1.);
#87 = DIRECTION('',(0.,-1.,0.));
#88 = ORIENTED_EDGE('',*,*,#89,.F.);
#89 = EDGE_CURVE('',#22,#82,#90,.T.);
#90 = CIRCLE('',#91,1.5);
#91 = AXIS2_PLACEMENT_3D('',#92,#93,#94);
#92 = CARTESIAN_POINT('',(42.5,11.5,0.));
#93 = DIRECTION('',(-0.,0.,1.));
#94 = DIRECTION('',(0.,-1.,0.));
#95 = PLANE('',#96);
#96 = AXIS2_PLACEMENT_3D('',#97,#98,#99);
#97 = CARTESIAN_POINT('',(23.161376601623,15.639627434597,0.));
#98 = DIRECTION('',(-0.,-0.,-1.));
#99 = DIRECTION('',(-1.,0.,0.));
#100 = ADVANCED_FACE('',(#101,#126),#137,.T.);
#101 = FACE_BOUND('',#102,.T.);
#102 = EDGE_LOOP('',(#103,#104,#112,#120));
#103 = ORIENTED_EDGE('',*,*,#21,.F.);
#104 = ORIENTED_EDGE('',*,*,#105,.T.);
#105 = EDGE_CURVE('',#22,#106,#108,.T.);
#106 = VERTEX_POINT('',#107);
#107 = CARTESIAN_POINT('',(42.5,10.,12.));
#108 = LINE('',#109,#110);
#109 = CARTESIAN_POINT('',(42.5,10.,0.));
#110 = VECTOR('',#111,1.);
#111 = DIRECTION('',(0.,0.,1.));
#112 = ORIENTED_EDGE('',*,*,#113,.T.);
#113 = EDGE_CURVE('',#106,#114,#116,.T.);
#114 = VERTEX_POINT('',#115);
#115 = CARTESIAN_POINT('',(4.229628648409,10.,12.));
#116 = LINE('',#117,#118);
#117 = CARTESIAN_POINT('',(44.,10.,12.));
#118 = VECTOR('',#119,1.);
#119 = DIRECTION('',(-1.,0.,0.));
#120 = ORIENTED_EDGE('',*,*,#121,.F.);
#121 = EDGE_CURVE('',#24,#114,#122,.T.);
#122 = LINE('',#123,#124);
#123 = CARTESIAN_POINT('',(4.229628648409,10.,0.));
#124 = VECTOR('',#125,1.);
#125 = DIRECTION('',(0.,0.,1.));
#126 = FACE_BOUND('',#127,.T.);
#127 = EDGE_LOOP('',(#128));
#128 = ORIENTED_EDGE('',*,*,#129,.F.);
#129 = EDGE_CURVE('',#130,#130,#132,.T.);
#130 = VERTEX_POINT('',#131);
#131 = CARTESIAN_POINT('',(37.5,10.,5.999999999884));
#132 = CIRCLE('',#133,2.5);
#133 = AXIS2_PLACEMENT_3D('',#134,#135,#136);
#134 = CARTESIAN_POINT('',(35.,10.,5.999999999884));
#135 = DIRECTION('',(0.,-1.,2.22044604925E-16));
#136 = DIRECTION('',(1.,0.,0.));
#137 = PLANE('',#138);
#138 = AXIS2_PLACEMENT_3D('',#139,#140,#141);
#139 = CARTESIAN_POINT('',(44.,10.,0.));
#140 = DIRECTION('',(0.,-1.,0.));
#141 = DIRECTION('',(-1.,0.,0.));
#142 = ADVANCED_FACE('',(#143),#162,.T.);
#143 = FACE_BOUND('',#144,.T.);
#144 = EDGE_LOOP('',(#145,#146,#154,#161));
#145 = ORIENTED_EDGE('',*,*,#89,.T.);
#146 = ORIENTED_EDGE('',*,*,#147,.T.);
#147 = EDGE_CURVE('',#82,#148,#150,.T.);
#148 = VERTEX_POINT('',#149);
#149 = CARTESIAN_POINT('',(44.,11.5,12.));
#150 = LINE('',#151,#152);
#151 = CARTESIAN_POINT('',(44.,11.5,0.));
#152 = VECTOR('',#153,1.);
#153 = DIRECTION('',(0.,0.,1.));
#154 = ORIENTED_EDGE('',*,*,#155,.F.);
#155 = EDGE_CURVE('',#106,#148,#156,.T.);
#156 = CIRCLE('',#157,1.5);
#157 = AXIS2_PLACEMENT_3D('',#158,#159,#160);
#158 = CARTESIAN_POINT('',(42.5,11.5,12.));
#159 = DIRECTION('',(-0.,0.,1.));
#160 = DIRECTION('',(0.,-1.,0.));
#161 = ORIENTED_EDGE('',*,*,#105,.F.);
#162 = CYLINDRICAL_SURFACE('',#163,1.5);
#163 = AXIS2_PLACEMENT_3D('',#164,#165,#166);
#164 = CARTESIAN_POINT('',(42.5,11.5,0.));
#165 = DIRECTION('',(0.,0.,1.));
#166 = DIRECTION('',(0.,-1.,0.));
#167 = ADVANCED_FACE('',(#168),#187,.T.);
#168 = FACE_BOUND('',#169,.F.);
#169 = EDGE_LOOP('',(#170,#171,#179,#186));
#170 = ORIENTED_EDGE('',*,*,#31,.T.);
#171 = ORIENTED_EDGE('',*,*,#172,.T.);
#172 = EDGE_CURVE('',#32,#173,#175,.T.);
#173 = VERTEX_POINT('',#174);
#174 = CARTESIAN_POINT('',(1.306518454053,12.325146836968,12.));
#175 = LINE('',#176,#177);
#176 = CARTESIAN_POINT('',(1.306518454053,12.325146836968,0.));
#177 = VECTOR('',#178,1.);
#178 = DIRECTION('',(0.,0.,1.));
#179 = ORIENTED_EDGE('',*,*,#180,.F.);
#180 = EDGE_CURVE('',#114,#173,#181,.T.);
#181 = CIRCLE('',#182,3.);
#182 = AXIS2_PLACEMENT_3D('',#183,#184,#185);
#183 = CARTESIAN_POINT('',(4.229628648409,13.,12.));
#184 = DIRECTION('',(-0.,-0.,-1.));
#185 = DIRECTION('',(0.,-1.,0.));
#186 = ORIENTED_EDGE('',*,*,#121,.F.);
#187 = CYLINDRICAL_SURFACE('',#188,3.);
#188 = AXIS2_PLACEMENT_3D('',#189,#190,#191);
#189 = CARTESIAN_POINT('',(4.229628648409,13.,0.));
#190 = DIRECTION('',(0.,0.,1.));
#191 = DIRECTION('',(0.,-1.,0.));
#192 = ADVANCED_FACE('',(#193),#211,.T.);
#193 = FACE_BOUND('',#194,.T.);
#194 = EDGE_LOOP('',(#195,#196,#204,#210));
#195 = ORIENTED_EDGE('',*,*,#81,.F.);
#196 = ORIENTED_EDGE('',*,*,#197,.T.);
#197 = EDGE_CURVE('',#73,#198,#200,.T.);
#198 = VERTEX_POINT('',#199);
#199 = CARTESIAN_POINT('',(44.,19.,12.));
#200 = LINE('',#201,#202);
#201 = CARTESIAN_POINT('',(44.,19.,0.));
#202 = VECTOR('',#203,1.);
#203 = DIRECTION('',(0.,0.,1.));
#204 = ORIENTED_EDGE('',*,*,#205,.T.);
#205 = EDGE_CURVE('',#198,#148,#206,.T.);
#206 = LINE('',#207,#208);
#207 = CARTESIAN_POINT('',(44.,22.,12.));
#208 = VECTOR('',#209,1.);
#209 = DIRECTION('',(0.,-1.,0.));
#210 = ORIENTED_EDGE('',*,*,#147,.F.);
#211 = PLANE('',#212);
#212 = AXIS2_PLACEMENT_3D('',#213,#214,#215);
#213 = CARTESIAN_POINT('',(44.,22.,0.));
#214 = DIRECTION('',(1.,0.,0.));
#215 = DIRECTION('',(0.,-1.,0.));
#216 = ADVANCED_FACE('',(#217),#235,.T.);
#217 = FACE_BOUND('',#218,.T.);
#218 = EDGE_LOOP('',(#219,#220,#221,#229));
#219 = ORIENTED_EDGE('',*,*,#40,.F.);
#220 = ORIENTED_EDGE('',*,*,#172,.T.);
#221 = ORIENTED_EDGE('',*,*,#222,.T.);
#222 = EDGE_CURVE('',#173,#223,#225,.T.);
#223 = VERTEX_POINT('',#224);
#224 = CARTESIAN_POINT('',(0.,17.9843,12.));
#225 = LINE('',#226,#227);
#226 = CARTESIAN_POINT('',(1.843320898406,10.,12.));
#227 = VECTOR('',#228,1.);
#228 = DIRECTION('',(-0.224951054344,0.974370064785,0.));
#229 = ORIENTED_EDGE('',*,*,#230,.F.);
#230 = EDGE_CURVE('',#41,#223,#231,.T.);
#231 = LINE('',#232,#233);
#232 = CARTESIAN_POINT('',(0.,17.9843,0.));
#233 = VECTOR('',#234,1.);
#234 = DIRECTION('',(0.,0.,1.));
#235 = PLANE('',#236);
#236 = AXIS2_PLACEMENT_3D('',#237,#238,#239);
#237 = CARTESIAN_POINT('',(1.843320898406,10.,0.));
#238 = DIRECTION('',(-0.974370064785,-0.224951054344,0.));
#239 = DIRECTION('',(-0.224951054344,0.974370064785,0.));
#240 = ADVANCED_FACE('',(#241),#260,.T.);
#241 = FACE_BOUND('',#242,.F.);
#242 = EDGE_LOOP('',(#243,#244,#245,#254));
#243 = ORIENTED_EDGE('',*,*,#72,.T.);
#244 = ORIENTED_EDGE('',*,*,#197,.T.);
#245 = ORIENTED_EDGE('',*,*,#246,.F.);
#246 = EDGE_CURVE('',#247,#198,#249,.T.);
#247 = VERTEX_POINT('',#248);
#248 = CARTESIAN_POINT('',(41.,22.,12.));
#249 = CIRCLE('',#250,3.);
#250 = AXIS2_PLACEMENT_3D('',#251,#252,#253);
#251 = CARTESIAN_POINT('',(41.,19.,12.));
#252 = DIRECTION('',(-0.,-0.,-1.));
#253 = DIRECTION('',(0.,-1.,0.));
#254 = ORIENTED_EDGE('',*,*,#255,.F.);
#255 = EDGE_CURVE('',#65,#247,#256,.T.);
#256 = LINE('',#257,#258);
#257 = CARTESIAN_POINT('',(41.,22.,0.));
#258 = VECTOR('',#259,1.);
#259 = DIRECTION('',(0.,0.,1.));
#260 = CYLINDRICAL_SURFACE('',#261,3.);
#261 = AXIS2_PLACEMENT_3D('',#262,#263,#264);
#262 = CARTESIAN_POINT('',(41.,19.,0.));
#263 = DIRECTION('',(0.,0.,1.));
#264 = DIRECTION('',(0.,1.,0.));
#265 = ADVANCED_FACE('',(#266),#294,.T.);
#266 = FACE_BOUND('',#267,.T.);
#267 = EDGE_LOOP('',(#268,#269,#270,#278,#287));
#268 = ORIENTED_EDGE('',*,*,#48,.F.);
#269 = ORIENTED_EDGE('',*,*,#230,.T.);
#270 = ORIENTED_EDGE('',*,*,#271,.T.);
#271 = EDGE_CURVE('',#223,#272,#274,.T.);
#272 = VERTEX_POINT('',#273);
#273 = CARTESIAN_POINT('',(7.256328720701,19.659555485962,12.));
#274 = LINE('',#275,#276);
#275 = CARTESIAN_POINT('',(0.,17.9843,12.));
#276 = VECTOR('',#277,1.);
#277 = DIRECTION('',(0.974370064785,0.224951054344,0.));
#278 = ORIENTED_EDGE('',*,*,#279,.F.);
#279 = EDGE_CURVE('',#280,#272,#282,.T.);
#280 = VERTEX_POINT('',#281);
#281 = CARTESIAN_POINT('',(1.410108357757,18.309849165847,6.));
#282 = CIRCLE('',#283,6.);
#283 = AXIS2_PLACEMENT_3D('',#284,#285,#286);
#284 = CARTESIAN_POINT('',(7.256328746468,19.659555491911,6.));
#285 = DIRECTION('',(-0.224951054344,0.974370064785,-6.243645998662E-18)
  );
#286 = DIRECTION('',(-0.974370064785,-0.224951054344,2.775557561563E-17)
  );
#287 = ORIENTED_EDGE('',*,*,#288,.F.);
#288 = EDGE_CURVE('',#49,#280,#289,.T.);
#289 = CIRCLE('',#290,6.);
#290 = AXIS2_PLACEMENT_3D('',#291,#292,#293);
#291 = CARTESIAN_POINT('',(7.256328746468,19.659555491911,6.));
#292 = DIRECTION('',(-0.224951054344,0.974370064785,-6.243645998662E-18)
  );
#293 = DIRECTION('',(-0.974370064785,-0.224951054344,2.775557561563E-17)
  );
#294 = PLANE('',#295);
#295 = AXIS2_PLACEMENT_3D('',#296,#297,#298);
#296 = CARTESIAN_POINT('',(0.,17.9843,0.));
#297 = DIRECTION('',(-0.224951054344,0.974370064785,0.));
#298 = DIRECTION('',(0.974370064785,0.224951054344,0.));
#299 = ADVANCED_FACE('',(#300),#318,.T.);
#300 = FACE_BOUND('',#301,.T.);
#301 = EDGE_LOOP('',(#302,#303,#311,#317));
#302 = ORIENTED_EDGE('',*,*,#64,.F.);
#303 = ORIENTED_EDGE('',*,*,#304,.T.);
#304 = EDGE_CURVE('',#57,#305,#307,.T.);
#305 = VERTEX_POINT('',#306);
#306 = CARTESIAN_POINT('',(17.393907668346,22.,12.));
#307 = LINE('',#308,#309);
#308 = CARTESIAN_POINT('',(17.393907668346,22.,0.));
#309 = VECTOR('',#310,1.);
#310 = DIRECTION('',(0.,0.,1.));
#311 = ORIENTED_EDGE('',*,*,#312,.T.);
#312 = EDGE_CURVE('',#305,#247,#313,.T.);
#313 = LINE('',#314,#315);
#314 = CARTESIAN_POINT('',(17.393907668346,22.,12.));
#315 = VECTOR('',#316,1.);
#316 = DIRECTION('',(1.,0.,0.));
#317 = ORIENTED_EDGE('',*,*,#255,.F.);
#318 = PLANE('',#319);
#319 = AXIS2_PLACEMENT_3D('',#320,#321,#322);
#320 = CARTESIAN_POINT('',(17.393907668346,22.,0.));
#321 = DIRECTION('',(0.,1.,0.));
#322 = DIRECTION('',(1.,0.,0.));
#323 = ADVANCED_FACE('',(#324),#341,.T.);
#324 = FACE_BOUND('',#325,.T.);
#325 = EDGE_LOOP('',(#326,#327,#334,#340));
#326 = ORIENTED_EDGE('',*,*,#56,.F.);
#327 = ORIENTED_EDGE('',*,*,#328,.F.);
#328 = EDGE_CURVE('',#272,#49,#329,.T.);
#329 = CIRCLE('',#330,6.);
#330 = AXIS2_PLACEMENT_3D('',#331,#332,#333);
#331 = CARTESIAN_POINT('',(7.256328746468,19.659555491911,6.));
#332 = DIRECTION('',(-0.224951054344,0.974370064785,-6.243645998662E-18)
  );
#333 = DIRECTION('',(-0.974370064785,-0.224951054344,2.775557561563E-17)
  );
#334 = ORIENTED_EDGE('',*,*,#335,.T.);
#335 = EDGE_CURVE('',#272,#305,#336,.T.);
#336 = LINE('',#337,#338);
#337 = CARTESIAN_POINT('',(0.,17.9843,12.));
#338 = VECTOR('',#339,1.);
#339 = DIRECTION('',(0.974370064785,0.224951054344,0.));
#340 = ORIENTED_EDGE('',*,*,#304,.F.);
#341 = PLANE('',#342);
#342 = AXIS2_PLACEMENT_3D('',#343,#344,#345);
#343 = CARTESIAN_POINT('',(0.,17.9843,0.));
#344 = DIRECTION('',(-0.224951054344,0.974370064785,0.));
#345 = DIRECTION('',(0.974370064785,0.224951054344,0.));
#346 = ADVANCED_FACE('',(#347),#358,.F.);
#347 = FACE_BOUND('',#348,.F.);
#348 = EDGE_LOOP('',(#349,#350,#351,#352,#353,#354,#355,#356,#357));
#349 = ORIENTED_EDGE('',*,*,#113,.T.);
#350 = ORIENTED_EDGE('',*,*,#180,.T.);
#351 = ORIENTED_EDGE('',*,*,#222,.T.);
#352 = ORIENTED_EDGE('',*,*,#271,.T.);
#353 = ORIENTED_EDGE('',*,*,#335,.T.);
#354 = ORIENTED_EDGE('',*,*,#312,.T.);
#355 = ORIENTED_EDGE('',*,*,#246,.T.);
#356 = ORIENTED_EDGE('',*,*,#205,.T.);
#357 = ORIENTED_EDGE('',*,*,#155,.F.);
#358 = PLANE('',#359);
#359 = AXIS2_PLACEMENT_3D('',#360,#361,#362);
#360 = CARTESIAN_POINT('',(23.161376601623,15.639627434597,12.));
#361 = DIRECTION('',(-0.,-0.,-1.));
#362 = DIRECTION('',(-1.,0.,0.));
#363 = ADVANCED_FACE('',(#364),#383,.T.);
#364 = FACE_BOUND('',#365,.F.);
#365 = EDGE_LOOP('',(#366,#374,#381,#382));
#366 = ORIENTED_EDGE('',*,*,#367,.T.);
#367 = EDGE_CURVE('',#130,#368,#370,.T.);
#368 = VERTEX_POINT('',#369);
#369 = CARTESIAN_POINT('',(37.5,1.332267629524E-15,5.999999999884));
#370 = LINE('',#371,#372);
#371 = CARTESIAN_POINT('',(37.5,10.,5.999999999884));
#372 = VECTOR('',#373,1.);
#373 = DIRECTION('',(0.,-1.,2.22044604925E-16));
#374 = ORIENTED_EDGE('',*,*,#375,.T.);
#375 = EDGE_CURVE('',#368,#368,#376,.T.);
#376 = CIRCLE('',#377,2.5);
#377 = AXIS2_PLACEMENT_3D('',#378,#379,#380);
#378 = CARTESIAN_POINT('',(35.,1.332267629524E-15,5.999999999884));
#379 = DIRECTION('',(0.,-1.,2.22044604925E-16));
#380 = DIRECTION('',(1.,0.,0.));
#381 = ORIENTED_EDGE('',*,*,#367,.F.);
#382 = ORIENTED_EDGE('',*,*,#129,.F.);
#383 = CYLINDRICAL_SURFACE('',#384,2.5);
#384 = AXIS2_PLACEMENT_3D('',#385,#386,#387);
#385 = CARTESIAN_POINT('',(35.,10.,5.999999999884));
#386 = DIRECTION('',(0.,1.,-2.22044604925E-16));
#387 = DIRECTION('',(1.,0.,0.));
#388 = ADVANCED_FACE('',(#389),#410,.T.);
#389 = FACE_BOUND('',#390,.F.);
#390 = EDGE_LOOP('',(#391,#392,#400,#407,#408,#409));
#391 = ORIENTED_EDGE('',*,*,#279,.F.);
#392 = ORIENTED_EDGE('',*,*,#393,.T.);
#393 = EDGE_CURVE('',#280,#394,#396,.T.);
#394 = VERTEX_POINT('',#395);
#395 = CARTESIAN_POINT('',(-0.839402185684,28.053549813699,6.));
#396 = LINE('',#397,#398);
#397 = CARTESIAN_POINT('',(1.410108357757,18.309849165847,6.));
#398 = VECTOR('',#399,1.);
#399 = DIRECTION('',(-0.224951054344,0.974370064785,-1.665334536938E-16)
  );
#400 = ORIENTED_EDGE('',*,*,#401,.T.);
#401 = EDGE_CURVE('',#394,#394,#402,.T.);
#402 = CIRCLE('',#403,6.);
#403 = AXIS2_PLACEMENT_3D('',#404,#405,#406);
#404 = CARTESIAN_POINT('',(5.006818203028,29.403256139763,6.));
#405 = DIRECTION('',(-0.224951054344,0.974370064785,-6.243645998662E-18)
  );
#406 = DIRECTION('',(-0.974370064785,-0.224951054344,2.775557561563E-17)
  );
#407 = ORIENTED_EDGE('',*,*,#393,.F.);
#408 = ORIENTED_EDGE('',*,*,#288,.F.);
#409 = ORIENTED_EDGE('',*,*,#328,.F.);
#410 = CYLINDRICAL_SURFACE('',#411,6.);
#411 = AXIS2_PLACEMENT_3D('',#412,#413,#414);
#412 = CARTESIAN_POINT('',(7.256328746468,19.659555491911,6.));
#413 = DIRECTION('',(0.224951054344,-0.974370064785,6.243645998662E-18)
  );
#414 = DIRECTION('',(-0.974370064785,-0.224951054344,2.775557561563E-17)
  );
#415 = ADVANCED_FACE('',(#416),#419,.T.);
#416 = FACE_BOUND('',#417,.T.);
#417 = EDGE_LOOP('',(#418));
#418 = ORIENTED_EDGE('',*,*,#375,.T.);
#419 = PLANE('',#420);
#420 = AXIS2_PLACEMENT_3D('',#421,#422,#423);
#421 = CARTESIAN_POINT('',(35.,0.,5.999999999884));
#422 = DIRECTION('',(2.368475785867E-16,-1.,4.102320397618E-16));
#423 = DIRECTION('',(0.,-4.102320397618E-16,-1.));
#424 = ADVANCED_FACE('',(#425),#428,.T.);
#425 = FACE_BOUND('',#426,.T.);
#426 = EDGE_LOOP('',(#427));
#427 = ORIENTED_EDGE('',*,*,#401,.T.);
#428 = PLANE('',#429);
#429 = AXIS2_PLACEMENT_3D('',#430,#431,#432);
#430 = CARTESIAN_POINT('',(5.006818203028,29.403256139763,6.));
#431 = DIRECTION('',(-0.224951054344,0.974370064785,-1.103849309344E-16)
  );
#432 = DIRECTION('',(0.974370064785,0.224951054344,0.));
#433 = ( GEOMETRIC_REPRESENTATION_CONTEXT(3) 
GLOBAL_UNCERTAINTY_ASSIGNED_CONTEXT((#437)) GLOBAL_UNIT_ASSIGNED_CONTEXT
((#434,#435,#436)) REPRESENTATION_CONTEXT('Context #1',
  '3D Context with UNIT and UNCERTAINTY') );
#434 = ( LENGTH_UNIT() NAMED_UNIT(*) SI_UNIT(.MILLI.,.METRE.) );
#435 = ( NAMED_UNIT(*) PLANE_ANGLE_UNIT() SI_UNIT($,.RADIAN.) );
#436 = ( NAMED_UNIT(*) SI_UNIT($,.STERADIAN.) SOLID_ANGLE_UNIT() );
#437 = UNCERTAINTY_MEASURE_WITH_UNIT(LENGTH_MEASURE(1.E-07),#434,
  'distance_accuracy_value','confusion accuracy');
#438 = PRODUCT_RELATED_PRODUCT_CATEGORY('part',$,(#7));
#439 = MECHANICAL_DESIGN_GEOMETRIC_PRESENTATION_REPRESENTATION('',(#440)
  ,#433);
#440 = STYLED_ITEM('color',(#441),#15);
#441 = PRESENTATION_STYLE_ASSIGNMENT((#442,#448));
#442 = SURFACE_STYLE_USAGE(.BOTH.,#443);
#443 = SURFACE_SIDE_STYLE('',(#444));
#444 = SURFACE_STYLE_FILL_AREA(#445);
#445 = FILL_AREA_STYLE('',(#446));
#446 = FILL_AREA_STYLE_COLOUR('',#447);
#447 = COLOUR_RGB('',0.800000010877,0.800000010877,0.800000010877);
#448 = CURVE_STYLE('',#449,POSITIVE_LENGTH_MEASURE(0.1),#450);
#449 = DRAUGHTING_PRE_DEFINED_CURVE_FONT('continuous');
#450 = COLOUR_RGB('',9.803921802644E-02,9.803921802644E-02,
  9.803921802644E-02);
ENDSEC;
END-ISO-10303-21;
