ISO-10303-21;
HEADER;
FILE_DESCRIPTION (( 'STEP AP214' ),
    '1' );
FILE_NAME ('flange V1.STEP',
    '2022-09-26T14:37:44',
    ( '' ),
    ( '' ),
    'SwSTEP 2.0',
    'SolidWorks 2021',
    '' );
FILE_SCHEMA (( 'AUTOMOTIVE_DESIGN' ));
ENDSEC;

DATA;
#1 = DIRECTION ( 'NONE',  ( 0.000000000000000000, 0.000000000000000000, -1.000000000000000000 ) ) ;
#2 = CARTESIAN_POINT ( 'NONE',  ( 0.000000000000000000, 8.000000000000000000, 0.000000000000000000 ) ) ;
#3 = EDGE_CURVE ( 'NONE', #10, #19, #191, .T. ) ;
#4 = EDGE_LOOP ( 'NONE', ( #279, #44, #245, #268, #34 ) ) ;
#5 = CARTESIAN_POINT ( 'NONE',  ( -14.02078748119740936, 3.310074307084089451, 0.000000000000000000 ) ) ;
#6 = VERTEX_POINT ( 'NONE', #167 ) ;
#7 = CARTESIAN_POINT ( 'NONE',  ( 0.000000000000000000, 1.224646799147350989E-16, 0.000000000000000000 ) ) ;
#8 = CIRCLE ( 'NONE', #156, 15.12500000000000000 ) ;
#9 = UNCERTAINTY_MEASURE_WITH_UNIT (LENGTH_MEASURE( 1.000000000000000082E-05 ), #108, 'distance_accuracy_value', 'NONE');
#10 = VERTEX_POINT ( 'NONE', #254 ) ;
#11 = EDGE_CURVE ( 'NONE', #130, #6, #163, .T. ) ;
#12 = DIRECTION ( 'NONE',  ( -0.000000000000000000, -1.000000000000000000, -0.000000000000000000 ) ) ;
#13 = CARTESIAN_POINT ( 'NONE',  ( 15.00000000000000000, 8.000000000000000000, -1.836970198721029589E-15 ) ) ;
#14 =( BOUNDED_SURFACE ( )  B_SPLINE_SURFACE ( 3, 3, ( 
 ( #33, #195, #221, #119 ),
 ( #5, #307, #99, #104 ),
 ( #188, #53, #144, #238 ),
 ( #27, #151, #199, #294 ) ),
 .UNSPECIFIED., .F., .F., .F. ) 
 B_SPLINE_SURFACE_WITH_KNOTS ( ( 4, 4 ),
 ( 4, 4 ),
 ( 0.000000000000000000, 1.000000000000000000 ),
 ( 0.000000000000000000, 1.000000000000000000 ),
 .UNSPECIFIED. ) 
 GEOMETRIC_REPRESENTATION_ITEM ( )  RATIONAL_B_SPLINE_SURFACE ( (
 ( 1.000000000000000000, 0.3333333333333334259, 0.3333333333333334259, 1.000000000000000000),
 ( 1.000000000000000000, 0.3333333333333334259, 0.3333333333333334259, 1.000000000000000000),
 ( 1.000000000000000000, 0.3333333333333334259, 0.3333333333333334259, 1.000000000000000000),
 ( 1.000000000000000000, 0.3333333333333334259, 0.3333333333333334259, 1.000000000000000000) ) ) 
 REPRESENTATION_ITEM ( '' )  SURFACE ( )  );
#15 = MECHANICAL_DESIGN_GEOMETRIC_PRESENTATION_REPRESENTATION (  '', ( #66 ), #269 ) ;
#16 = EDGE_CURVE ( 'NONE', #300, #198, #46, .T. ) ;
#17 = CARTESIAN_POINT ( 'NONE',  ( 0.000000000000000000, 0.000000000000000000, 0.000000000000000000 ) ) ;
#18 = PLANE ( 'NONE',  #201 ) ;
#19 = VERTEX_POINT ( 'NONE', #166 ) ;
#20 = EDGE_LOOP ( 'NONE', ( #306, #158 ) ) ;
#21 = CYLINDRICAL_SURFACE ( 'NONE', #239, 15.12500000000000000 ) ;
#22 = CIRCLE ( 'NONE', #290, 13.99999999999999822 ) ;
#23 = PRODUCT_DEFINITION_FORMATION_WITH_SPECIFIED_SOURCE ( 'ANY', '', #206, .NOT_KNOWN. ) ;
#24 = ADVANCED_FACE ( 'NONE', ( #258 ), #226, .F. ) ;
#25 = CARTESIAN_POINT ( 'NONE',  ( -15.00000000000000000, 6.695169909063987568, 0.000000000000000000 ) ) ;
#26 = PRESENTATION_STYLE_ASSIGNMENT (( #28 ) ) ;
#27 = CARTESIAN_POINT ( 'NONE',  ( -15.00000000000000000, 8.000000000000000000, 0.000000000000000000 ) ) ;
#28 = SURFACE_STYLE_USAGE ( .BOTH. , #52 ) ;
#29 = CIRCLE ( 'NONE', #123, 13.99999999999999822 ) ;
#30 = DIRECTION ( 'NONE',  ( -0.000000000000000000, -1.000000000000000000, -0.000000000000000000 ) ) ;
#31 = AXIS2_PLACEMENT_3D ( 'NONE', #7, #68, #222 ) ;
#32 = DIRECTION ( 'NONE',  ( 0.000000000000000000, 0.000000000000000000, -1.000000000000000000 ) ) ;
#33 = CARTESIAN_POINT ( 'NONE',  ( -13.99999999999999822, 1.259186829400956054, 0.000000000000000000 ) ) ;
#34 = ORIENTED_EDGE ( 'NONE', *, *, #154, .F. ) ;
#35 = CARTESIAN_POINT ( 'NONE',  ( -15.12500000000000000, 8.000000000000000000, 0.000000000000000000 ) ) ;
#36 = ADVANCED_FACE ( 'NONE', ( #228 ), #21, .T. ) ;
#37 = DIRECTION ( 'NONE',  ( -0.000000000000000000, -1.000000000000000000, -0.000000000000000000 ) ) ;
#38 = CIRCLE ( 'NONE', #55, 15.00000000000000000 ) ;
#39 = AXIS2_PLACEMENT_3D ( 'NONE', #2, #30, #78 ) ;
#40 = DIRECTION ( 'NONE',  ( 0.000000000000000000, 0.000000000000000000, -1.000000000000000000 ) ) ;
#41 = CARTESIAN_POINT ( 'NONE',  ( 0.000000000000000000, 1.259186829400956054, 0.000000000000000000 ) ) ;
#42 = DIRECTION ( 'NONE',  ( -0.000000000000000000, -1.000000000000000000, -0.000000000000000000 ) ) ;
#43 = ADVANCED_BREP_SHAPE_REPRESENTATION ( 'flange V1', ( #118, #236 ), #223 ) ;
#44 = ORIENTED_EDGE ( 'NONE', *, *, #287, .T. ) ;
#45 = CARTESIAN_POINT ( 'NONE',  ( 15.00000000000000000, 8.000000000000000000, -1.836970198721029589E-15 ) ) ;
#46 = LINE ( 'NONE', #138, #235 ) ;
#47 = CARTESIAN_POINT ( 'NONE',  ( -15.00000000000000000, 6.695169909063987568, 3.673940397442059178E-15 ) ) ;
#48 = DIRECTION ( 'NONE',  ( -0.000000000000000000, -1.000000000000000000, -0.000000000000000000 ) ) ;
#49 = ADVANCED_FACE ( 'NONE', ( #102 ), #288, .F. ) ;
#50 = CARTESIAN_POINT ( 'NONE',  ( 0.000000000000000000, 1.259186829400956054, 0.000000000000000000 ) ) ;
#51 = COLOUR_RGB ( '',0.7921568627450980005, 0.8196078431372548767, 0.9333333333333333481 ) ;
#52 = SURFACE_SIDE_STYLE ('',( #260 ) ) ;
#53 = CARTESIAN_POINT ( 'NONE',  ( -14.99999999999999822, 6.695169909063986680, -29.99999999999999289 ) ) ;
#54 = FILL_AREA_STYLE ('',( #211 ) ) ;
#55 = AXIS2_PLACEMENT_3D ( 'NONE', #147, #81, #1 ) ;
#56 = DIRECTION ( 'NONE',  ( -0.000000000000000000, -1.000000000000000000, -0.000000000000000000 ) ) ;
#57 = DIRECTION ( 'NONE',  ( -0.000000000000000000, -1.000000000000000000, -0.000000000000000000 ) ) ;
#58 = EDGE_LOOP ( 'NONE', ( #160, #162, #93, #153 ) ) ;
#59 = FACE_OUTER_BOUND ( 'NONE', #184, .T. ) ;
#60 = DIRECTION ( 'NONE',  ( 0.000000000000000000, 0.000000000000000000, -1.000000000000000000 ) ) ;
#61 = EDGE_CURVE ( 'NONE', #298, #300, #243, .T. ) ;
#62 = EDGE_LOOP ( 'NONE', ( #250, #76 ) ) ;
#63 = DIRECTION ( 'NONE',  ( -0.000000000000000000, -1.000000000000000000, -0.000000000000000000 ) ) ;
#64 = ORIENTED_EDGE ( 'NONE', *, *, #3, .F. ) ;
#65 =( NAMED_UNIT ( * ) PLANE_ANGLE_UNIT ( ) SI_UNIT ( $, .RADIAN. ) );
#66 = STYLED_ITEM ( 'NONE', ( #26 ), #43 ) ;
#67 = EDGE_CURVE ( 'NONE', #6, #187, #22, .T. ) ;
#68 = DIRECTION ( 'NONE',  ( -0.000000000000000000, -1.000000000000000000, -0.000000000000000000 ) ) ;
#69 = ORIENTED_EDGE ( 'NONE', *, *, #75, .F. ) ;
#70 = LINE ( 'NONE', #292, #208 ) ;
#71 = ORIENTED_EDGE ( 'NONE', *, *, #143, .F. ) ;
#72 = DIRECTION ( 'NONE',  ( 1.000000000000000000, 0.000000000000000000, 0.000000000000000000 ) ) ;
#73 = CARTESIAN_POINT ( 'NONE',  ( -13.99999999999999822, 1.259186829400956054, 3.429011037612588881E-15 ) ) ;
#74 = EDGE_CURVE ( 'NONE', #259, #173, #38, .T. ) ;
#75 = EDGE_CURVE ( 'NONE', #6, #173, #266, .T. ) ;
#76 = ORIENTED_EDGE ( 'NONE', *, *, #237, .T. ) ;
#77 = EDGE_LOOP ( 'NONE', ( #293, #148, #291, #183, #140 ) ) ;
#78 = DIRECTION ( 'NONE',  ( 0.000000000000000000, 0.000000000000000000, -1.000000000000000000 ) ) ;
#79 = PRESENTATION_LAYER_ASSIGNMENT (  '', '', ( #66 ) ) ;
#80 = SHAPE_DEFINITION_REPRESENTATION ( #213, #43 ) ;
#81 = DIRECTION ( 'NONE',  ( -0.000000000000000000, -1.000000000000000000, -0.000000000000000000 ) ) ;
#82 = DIRECTION ( 'NONE',  ( 0.000000000000000000, 0.000000000000000000, -1.000000000000000000 ) ) ;
#83 = ORIENTED_EDGE ( 'NONE', *, *, #74, .F. ) ;
#84 = SURFACE_STYLE_FILL_AREA ( #212 ) ;
#85 = DIRECTION ( 'NONE',  ( -0.000000000000000000, -1.000000000000000000, -0.000000000000000000 ) ) ;
#86 = LINE ( 'NONE', #272, #284 ) ;
#87 = EDGE_LOOP ( 'NONE', ( #69, #107, #210, #126, #227 ) ) ;
#88 = CARTESIAN_POINT ( 'NONE',  ( -15.00000000000000000, 8.000000000000000000, 0.000000000000000000 ) ) ;
#89 = DIRECTION ( 'NONE',  ( 0.000000000000000000, 0.000000000000000000, -1.000000000000000000 ) ) ;
#90 = STYLED_ITEM ( 'NONE', ( #267 ), #118 ) ;
#91 = VERTEX_POINT ( 'NONE', #193 ) ;
#92 = CARTESIAN_POINT ( 'NONE',  ( 1.714505518806294441E-15, 1.259186829400956054, 13.99999999999999822 ) ) ;
#93 = ORIENTED_EDGE ( 'NONE', *, *, #283, .F. ) ;
#94 = CARTESIAN_POINT ( 'NONE',  ( -14.02078748119740936, 3.310074307084089451, 3.434102502074737582E-15 ) ) ;
#95 = AXIS2_PLACEMENT_3D ( 'NONE', #50, #85, #32 ) ;
#96 = ORIENTED_EDGE ( 'NONE', *, *, #155, .T. ) ;
#97 = DIRECTION ( 'NONE',  ( 0.000000000000000000, 0.000000000000000000, 1.000000000000000000 ) ) ;
#98 = ORIENTED_EDGE ( 'NONE', *, *, #124, .F. ) ;
#99 = CARTESIAN_POINT ( 'NONE',  ( 14.02078748119740581, 3.310074307084089451, -28.04157496239481162 ) ) ;
#100 = PRODUCT_CONTEXT ( 'NONE', #242, 'mechanical' ) ;
#101 = EDGE_CURVE ( 'NONE', #187, #207, #125, .T. ) ;
#102 = FACE_OUTER_BOUND ( 'NONE', #77, .T. ) ;
#103 = FILL_AREA_STYLE_COLOUR ( '', #51 ) ;
#104 = CARTESIAN_POINT ( 'NONE',  ( 14.02078748119740936, 3.310074307084089451, -1.717051251037368791E-15 ) ) ;
#105 = PRESENTATION_LAYER_ASSIGNMENT (  '', '', ( #90 ) ) ;
#106 = CARTESIAN_POINT ( 'NONE',  ( 0.000000000000000000, 0.000000000000000000, 0.000000000000000000 ) ) ;
#107 = ORIENTED_EDGE ( 'NONE', *, *, #67, .T. ) ;
#108 =( LENGTH_UNIT ( ) NAMED_UNIT ( * ) SI_UNIT ( .MILLI., .METRE. ) );
#109 = DIRECTION ( 'NONE',  ( 0.000000000000000000, -0.000000000000000000, 1.000000000000000000 ) ) ;
#110 = PRODUCT_DEFINITION ( 'UNKNOWN', '', #23, #265 ) ;
#111 = CARTESIAN_POINT ( 'NONE',  ( 15.00000000000000355, 8.000000000000000000, 29.99999999999998579 ) ) ;
#112 = CARTESIAN_POINT ( 'NONE',  ( 0.000000000000000000, 0.000000000000000000, 0.000000000000000000 ) ) ;
#113 = DIRECTION ( 'NONE',  ( -0.000000000000000000, -1.000000000000000000, -0.000000000000000000 ) ) ;
#114 = DIRECTION ( 'NONE',  ( 0.000000000000000000, 1.000000000000000000, 0.000000000000000000 ) ) ;
#115 = CARTESIAN_POINT ( 'NONE',  ( 14.00000000000000178, 1.259186829400956054, 27.99999999999998934 ) ) ;
#116 = EDGE_CURVE ( 'NONE', #300, #298, #310, .T. ) ;
#117 = ORIENTED_EDGE ( 'NONE', *, *, #16, .F. ) ;
#118 = MANIFOLD_SOLID_BREP ( 'Révolution1', #171 ) ;
#119 = CARTESIAN_POINT ( 'NONE',  ( 13.99999999999999822, 1.259186829400956054, -1.714505518806294441E-15 ) ) ;
#120 =( LENGTH_UNIT ( ) NAMED_UNIT ( * ) SI_UNIT ( .MILLI., .METRE. ) );
#121 = DIRECTION ( 'NONE',  ( -0.000000000000000000, -1.000000000000000000, -0.000000000000000000 ) ) ;
#122 =( NAMED_UNIT ( * ) SI_UNIT ( $, .STERADIAN. ) SOLID_ANGLE_UNIT ( ) );
#123 = AXIS2_PLACEMENT_3D ( 'NONE', #197, #177, #60 ) ;
#124 = EDGE_CURVE ( 'NONE', #207, #259, #152, .T. ) ;
#125 = CIRCLE ( 'NONE', #95, 13.99999999999999822 ) ;
#126 = ORIENTED_EDGE ( 'NONE', *, *, #124, .T. ) ;
#127 = CARTESIAN_POINT ( 'NONE',  ( 0.000000000000000000, 1.259186829400956054, -13.99999999999999822 ) ) ;
#128 = CARTESIAN_POINT ( 'NONE',  ( 0.000000000000000000, 0.000000000000000000, 0.000000000000000000 ) ) ;
#129 = UNCERTAINTY_MEASURE_WITH_UNIT (LENGTH_MEASURE( 1.000000000000000082E-05 ), #142, 'distance_accuracy_value', 'NONE');
#130 = VERTEX_POINT ( 'NONE', #127 ) ;
#131 = CIRCLE ( 'NONE', #216, 15.12500000000000000 ) ;
#132 = DIRECTION ( 'NONE',  ( 0.000000000000000000, 0.000000000000000000, -1.000000000000000000 ) ) ;
#133 = CARTESIAN_POINT ( 'NONE',  ( -14.99999999999999289, 6.695169909063986680, 29.99999999999999645 ) ) ;
#134 = DIRECTION ( 'NONE',  ( 0.000000000000000000, 0.000000000000000000, -1.000000000000000000 ) ) ;
#135 = CARTESIAN_POINT ( 'NONE',  ( 14.02078748119740936, 3.310074307084089451, -1.717051251037368791E-15 ) ) ;
#136 = FACE_OUTER_BOUND ( 'NONE', #4, .T. ) ;
#137 = ADVANCED_FACE ( 'NONE', ( #59 ), #14, .F. ) ;
#138 = CARTESIAN_POINT ( 'NONE',  ( 1.852278283710371877E-15, 0.000000000000000000, 15.12500000000000000 ) ) ;
#139 = APPLICATION_PROTOCOL_DEFINITION ( 'draft international standard', 'automotive_design', 1998, #190 ) ;
#140 = ORIENTED_EDGE ( 'NONE', *, *, #143, .T. ) ;
#141 = CARTESIAN_POINT ( 'NONE',  ( -13.99999999999999112, 1.259186829400956054, 27.99999999999999289 ) ) ;
#142 =( LENGTH_UNIT ( ) NAMED_UNIT ( * ) SI_UNIT ( .MILLI., .METRE. ) );
#143 = EDGE_CURVE ( 'NONE', #19, #10, #257, .T. ) ;
#144 = CARTESIAN_POINT ( 'NONE',  ( 14.99999999999999645, 6.695169909063986680, -29.99999999999999645 ) ) ;
#145 = MECHANICAL_DESIGN_GEOMETRIC_PRESENTATION_REPRESENTATION (  '', ( #90 ), #262 ) ;
#146 =( NAMED_UNIT ( * ) PLANE_ANGLE_UNIT ( ) SI_UNIT ( $, .RADIAN. ) );
#147 = CARTESIAN_POINT ( 'NONE',  ( 0.000000000000000000, 8.000000000000000000, 0.000000000000000000 ) ) ;
#148 = ORIENTED_EDGE ( 'NONE', *, *, #67, .F. ) ;
#149 = DIRECTION ( 'NONE',  ( 0.000000000000000000, 0.000000000000000000, -1.000000000000000000 ) ) ;
#150 = FACE_BOUND ( 'NONE', #62, .T. ) ;
#151 = CARTESIAN_POINT ( 'NONE',  ( -14.99999999999999822, 8.000000000000000000, -29.99999999999999289 ) ) ;
#152 = B_SPLINE_CURVE_WITH_KNOTS ( 'NONE', 3,
 ( #244, #217, #25, #286 ),
 .UNSPECIFIED., .F., .F.,
 ( 4, 4 ),
 ( 0.000000000000000000, 1.000000000000000000 ),
 .UNSPECIFIED. ) ;
#153 = ORIENTED_EDGE ( 'NONE', *, *, #155, .F. ) ;
#154 = EDGE_CURVE ( 'NONE', #207, #130, #29, .T. ) ;
#155 = EDGE_CURVE ( 'NONE', #298, #91, #70, .T. ) ;
#156 = AXIS2_PLACEMENT_3D ( 'NONE', #112, #12, #40 ) ;
#157 = FACE_OUTER_BOUND ( 'NONE', #219, .T. ) ;
#158 = ORIENTED_EDGE ( 'NONE', *, *, #233, .T. ) ;
#159 = CYLINDRICAL_SURFACE ( 'NONE', #280, 13.99999999999999822 ) ;
#160 = ORIENTED_EDGE ( 'NONE', *, *, #61, .T. ) ;
#161 = DIRECTION ( 'NONE',  ( -0.000000000000000000, -1.000000000000000000, -0.000000000000000000 ) ) ;
#162 = ORIENTED_EDGE ( 'NONE', *, *, #16, .T. ) ;
#163 = CIRCLE ( 'NONE', #196, 13.99999999999999822 ) ;
#164 = CARTESIAN_POINT ( 'NONE',  ( 15.00000000000000355, 6.695169909063986680, 29.99999999999998579 ) ) ;
#165 =( NAMED_UNIT ( * ) PLANE_ANGLE_UNIT ( ) SI_UNIT ( $, .RADIAN. ) );
#166 = CARTESIAN_POINT ( 'NONE',  ( 0.000000000000000000, 1.224646799147350989E-16, -14.00000000000000000 ) ) ;
#167 = CARTESIAN_POINT ( 'NONE',  ( 13.99999999999999822, 1.259186829400956054, -1.775737858763662015E-15 ) ) ;
#168 = CIRCLE ( 'NONE', #218, 15.00000000000000000 ) ;
#169 =( NAMED_UNIT ( * ) SI_UNIT ( $, .STERADIAN. ) SOLID_ANGLE_UNIT ( ) );
#170 = SURFACE_STYLE_USAGE ( .BOTH. , #215 ) ;
#171 = CLOSED_SHELL ( 'NONE', ( #137, #192, #36, #278, #209, #181, #24, #49 ) ) ;
#172 = CARTESIAN_POINT ( 'NONE',  ( 14.02078748119740936, 3.310074307084089451, -1.717051251037368791E-15 ) ) ;
#173 = VERTEX_POINT ( 'NONE', #45 ) ;
#174 = AXIS2_PLACEMENT_3D ( 'NONE', #35, #296, #89 ) ;
#175 = FACE_OUTER_BOUND ( 'NONE', #20, .T. ) ;
#176 = CARTESIAN_POINT ( 'NONE',  ( 1.714505518806294441E-15, 0.000000000000000000, 13.99999999999999822 ) ) ;
#177 = DIRECTION ( 'NONE',  ( -0.000000000000000000, -1.000000000000000000, -0.000000000000000000 ) ) ;
#178 = AXIS2_PLACEMENT_3D ( 'NONE', #263, #121, #149 ) ;
#179 = PLANE ( 'NONE',  #174 ) ;
#180 = DIRECTION ( 'NONE',  ( -0.000000000000000000, -1.000000000000000000, -0.000000000000000000 ) ) ;
#181 = ADVANCED_FACE ( 'NONE', ( #202, #150 ), #179, .F. ) ;
#182 = DIRECTION ( 'NONE',  ( 0.000000000000000000, 0.000000000000000000, -1.000000000000000000 ) ) ;
#183 = ORIENTED_EDGE ( 'NONE', *, *, #273, .T. ) ;
#184 = EDGE_LOOP ( 'NONE', ( #281, #220, #83, #98, #203 ) ) ;
#185 = VECTOR ( 'NONE', #63, 1000.000000000000000 ) ;
#186 = CARTESIAN_POINT ( 'NONE',  ( -15.00000000000000000, 8.000000000000000000, 3.673940397442059178E-15 ) ) ;
#187 = VERTEX_POINT ( 'NONE', #92 ) ;
#188 = CARTESIAN_POINT ( 'NONE',  ( -15.00000000000000000, 6.695169909063987568, 0.000000000000000000 ) ) ;
#189 = DIRECTION ( 'NONE',  ( 0.000000000000000000, 0.000000000000000000, -1.000000000000000000 ) ) ;
#190 = APPLICATION_CONTEXT ( 'automotive_design' ) ;
#191 = CIRCLE ( 'NONE', #229, 14.00000000000000000 ) ;
#192 = ADVANCED_FACE ( 'NONE', ( #136 ), #159, .F. ) ;
#193 = CARTESIAN_POINT ( 'NONE',  ( 0.000000000000000000, 0.000000000000000000, -15.12500000000000000 ) ) ;
#194 = ORIENTED_EDGE ( 'NONE', *, *, #116, .T. ) ;
#195 = CARTESIAN_POINT ( 'NONE',  ( -13.99999999999999645, 1.259186829400956054, -27.99999999999998934 ) ) ;
#196 = AXIS2_PLACEMENT_3D ( 'NONE', #41, #200, #256 ) ;
#197 = CARTESIAN_POINT ( 'NONE',  ( 0.000000000000000000, 1.259186829400956054, 0.000000000000000000 ) ) ;
#198 = VERTEX_POINT ( 'NONE', #255 ) ;
#199 = CARTESIAN_POINT ( 'NONE',  ( 14.99999999999999645, 8.000000000000000000, -29.99999999999999645 ) ) ;
#200 = DIRECTION ( 'NONE',  ( -0.000000000000000000, -1.000000000000000000, -0.000000000000000000 ) ) ;
#201 = AXIS2_PLACEMENT_3D ( 'NONE', #276, #114, #109 ) ;
#202 = FACE_OUTER_BOUND ( 'NONE', #252, .T. ) ;
#203 = ORIENTED_EDGE ( 'NONE', *, *, #154, .T. ) ;
#204 = DIRECTION ( 'NONE',  ( 0.000000000000000000, 0.000000000000000000, -1.000000000000000000 ) ) ;
#205 = CARTESIAN_POINT ( 'NONE',  ( 14.02078748119741292, 3.310074307084089451, 28.04157496239481162 ) ) ;
#206 = PRODUCT ( 'flange V1', 'flange V1', '', ( #100 ) ) ;
#207 = VERTEX_POINT ( 'NONE', #225 ) ;
#208 = VECTOR ( 'NONE', #246, 1000.000000000000000 ) ;
#209 = ADVANCED_FACE ( 'NONE', ( #157 ), #251, .T. ) ;
#210 = ORIENTED_EDGE ( 'NONE', *, *, #101, .T. ) ;
#211 = FILL_AREA_STYLE_COLOUR ( '', #305 ) ;
#212 = FILL_AREA_STYLE ('',( #103 ) ) ;
#213 = PRODUCT_DEFINITION_SHAPE ( 'NONE', 'NONE',  #110 ) ;
#214 =( NAMED_UNIT ( * ) SI_UNIT ( $, .STERADIAN. ) SOLID_ANGLE_UNIT ( ) );
#215 = SURFACE_SIDE_STYLE ('',( #84 ) ) ;
#216 = AXIS2_PLACEMENT_3D ( 'NONE', #224, #270, #204 ) ;
#217 = CARTESIAN_POINT ( 'NONE',  ( -14.02078748119740936, 3.310074307084089451, 0.000000000000000000 ) ) ;
#218 = AXIS2_PLACEMENT_3D ( 'NONE', #299, #274, #132 ) ;
#219 = EDGE_LOOP ( 'NONE', ( #117, #194, #96, #295 ) ) ;
#220 = ORIENTED_EDGE ( 'NONE', *, *, #75, .T. ) ;
#221 = CARTESIAN_POINT ( 'NONE',  ( 13.99999999999999467, 1.259186829400956054, -27.99999999999998934 ) ) ;
#222 = DIRECTION ( 'NONE',  ( 0.000000000000000000, 0.000000000000000000, -1.000000000000000000 ) ) ;
#223 =( GEOMETRIC_REPRESENTATION_CONTEXT ( 3 ) GLOBAL_UNCERTAINTY_ASSIGNED_CONTEXT ( ( #9 ) ) GLOBAL_UNIT_ASSIGNED_CONTEXT ( ( #108, #65, #122 ) ) REPRESENTATION_CONTEXT ( 'NONE', 'WORKASPACE' ) );
#224 = CARTESIAN_POINT ( 'NONE',  ( 0.000000000000000000, 0.000000000000000000, 0.000000000000000000 ) ) ;
#225 = CARTESIAN_POINT ( 'NONE',  ( -13.99999999999999822, 1.259186829400956054, 0.000000000000000000 ) ) ;
#226 =( BOUNDED_SURFACE ( )  B_SPLINE_SURFACE ( 3, 3, ( 
 ( #231, #115, #141, #73 ),
 ( #135, #205, #302, #94 ),
 ( #234, #164, #133, #47 ),
 ( #13, #111, #304, #186 ) ),
 .UNSPECIFIED., .F., .F., .F. ) 
 B_SPLINE_SURFACE_WITH_KNOTS ( ( 4, 4 ),
 ( 4, 4 ),
 ( 0.000000000000000000, 1.000000000000000000 ),
 ( 0.000000000000000000, 1.000000000000000000 ),
 .UNSPECIFIED. ) 
 GEOMETRIC_REPRESENTATION_ITEM ( )  RATIONAL_B_SPLINE_SURFACE ( (
 ( 1.000000000000000000, 0.3333333333333334259, 0.3333333333333334259, 1.000000000000000000),
 ( 1.000000000000000000, 0.3333333333333334259, 0.3333333333333334259, 1.000000000000000000),
 ( 1.000000000000000000, 0.3333333333333334259, 0.3333333333333334259, 1.000000000000000000),
 ( 1.000000000000000000, 0.3333333333333334259, 0.3333333333333334259, 1.000000000000000000) ) ) 
 REPRESENTATION_ITEM ( '' )  SURFACE ( )  );
#227 = ORIENTED_EDGE ( 'NONE', *, *, #237, .F. ) ;
#228 = FACE_OUTER_BOUND ( 'NONE', #58, .T. ) ;
#229 = AXIS2_PLACEMENT_3D ( 'NONE', #232, #180, #275 ) ;
#230 = FACE_BOUND ( 'NONE', #271, .T. ) ;
#231 = CARTESIAN_POINT ( 'NONE',  ( 13.99999999999999822, 1.259186829400956054, -1.714505518806294441E-15 ) ) ;
#232 = CARTESIAN_POINT ( 'NONE',  ( 0.000000000000000000, 1.224646799147350989E-16, 0.000000000000000000 ) ) ;
#233 = EDGE_CURVE ( 'NONE', #198, #91, #8, .T. ) ;
#234 = CARTESIAN_POINT ( 'NONE',  ( 15.00000000000000000, 6.695169909063987568, -1.836970198721029589E-15 ) ) ;
#235 = VECTOR ( 'NONE', #48, 1000.000000000000000 ) ;
#236 = AXIS2_PLACEMENT_3D ( 'NONE', #303, #97, #72 ) ;
#237 = EDGE_CURVE ( 'NONE', #173, #259, #168, .T. ) ;
#238 = CARTESIAN_POINT ( 'NONE',  ( 15.00000000000000000, 6.695169909063987568, -1.836970198721029589E-15 ) ) ;
#239 = AXIS2_PLACEMENT_3D ( 'NONE', #17, #113, #189 ) ;
#240 = CARTESIAN_POINT ( 'NONE',  ( 15.00000000000000000, 6.695169909063987568, -1.836970198721029589E-15 ) ) ;
#241 = CARTESIAN_POINT ( 'NONE',  ( 15.00000000000000000, 8.000000000000000000, -1.836970198721029589E-15 ) ) ;
#242 = APPLICATION_CONTEXT ( 'automotive_design' ) ;
#243 = CIRCLE ( 'NONE', #297, 15.12500000000000000 ) ;
#244 = CARTESIAN_POINT ( 'NONE',  ( -13.99999999999999822, 1.259186829400956054, 0.000000000000000000 ) ) ;
#245 = ORIENTED_EDGE ( 'NONE', *, *, #3, .T. ) ;
#246 = DIRECTION ( 'NONE',  ( -0.000000000000000000, -1.000000000000000000, -0.000000000000000000 ) ) ;
#247 = UNCERTAINTY_MEASURE_WITH_UNIT (LENGTH_MEASURE( 1.000000000000000082E-05 ), #120, 'distance_accuracy_value', 'NONE');
#248 = CARTESIAN_POINT ( 'NONE',  ( 0.000000000000000000, 8.000000000000000000, -15.12500000000000000 ) ) ;
#249 = AXIS2_PLACEMENT_3D ( 'NONE', #128, #161, #134 ) ;
#250 = ORIENTED_EDGE ( 'NONE', *, *, #74, .T. ) ;
#251 = CYLINDRICAL_SURFACE ( 'NONE', #249, 15.12500000000000000 ) ;
#252 = EDGE_LOOP ( 'NONE', ( #282, #277 ) ) ;
#253 = CARTESIAN_POINT ( 'NONE',  ( 1.852278283710371877E-15, 8.000000000000000000, 15.12500000000000000 ) ) ;
#254 = CARTESIAN_POINT ( 'NONE',  ( 1.714505518806294835E-15, 1.224646799147350989E-16, 14.00000000000000178 ) ) ;
#255 = CARTESIAN_POINT ( 'NONE',  ( 1.852278283710371877E-15, 0.000000000000000000, 15.12500000000000000 ) ) ;
#256 = DIRECTION ( 'NONE',  ( 0.000000000000000000, 0.000000000000000000, -1.000000000000000000 ) ) ;
#257 = CIRCLE ( 'NONE', #31, 14.00000000000000000 ) ;
#258 = FACE_OUTER_BOUND ( 'NONE', #87, .T. ) ;
#259 = VERTEX_POINT ( 'NONE', #88 ) ;
#260 = SURFACE_STYLE_FILL_AREA ( #54 ) ;
#261 = CARTESIAN_POINT ( 'NONE',  ( 0.000000000000000000, 1.259186829400956054, 0.000000000000000000 ) ) ;
#262 =( GEOMETRIC_REPRESENTATION_CONTEXT ( 3 ) GLOBAL_UNCERTAINTY_ASSIGNED_CONTEXT ( ( #129 ) ) GLOBAL_UNIT_ASSIGNED_CONTEXT ( ( #142, #146, #169 ) ) REPRESENTATION_CONTEXT ( 'NONE', 'WORKASPACE' ) );
#263 = CARTESIAN_POINT ( 'NONE',  ( 0.000000000000000000, 0.000000000000000000, 0.000000000000000000 ) ) ;
#264 = PRODUCT_RELATED_PRODUCT_CATEGORY ( 'part', '', ( #206 ) ) ;
#265 = PRODUCT_DEFINITION_CONTEXT ( 'detailed design', #190, 'design' ) ;
#266 = B_SPLINE_CURVE_WITH_KNOTS ( 'NONE', 3,
 ( #309, #172, #240, #241 ),
 .UNSPECIFIED., .F., .F.,
 ( 4, 4 ),
 ( 0.000000000000000000, 1.000000000000000000 ),
 .UNSPECIFIED. ) ;
#267 = PRESENTATION_STYLE_ASSIGNMENT (( #170 ) ) ;
#268 = ORIENTED_EDGE ( 'NONE', *, *, #273, .F. ) ;
#269 =( GEOMETRIC_REPRESENTATION_CONTEXT ( 3 ) GLOBAL_UNCERTAINTY_ASSIGNED_CONTEXT ( ( #247 ) ) GLOBAL_UNIT_ASSIGNED_CONTEXT ( ( #120, #165, #214 ) ) REPRESENTATION_CONTEXT ( 'NONE', 'WORKASPACE' ) );
#270 = DIRECTION ( 'NONE',  ( -0.000000000000000000, -1.000000000000000000, -0.000000000000000000 ) ) ;
#271 = EDGE_LOOP ( 'NONE', ( #71, #64 ) ) ;
#272 = CARTESIAN_POINT ( 'NONE',  ( 0.000000000000000000, 0.000000000000000000, -13.99999999999999822 ) ) ;
#273 = EDGE_CURVE ( 'NONE', #130, #19, #86, .T. ) ;
#274 = DIRECTION ( 'NONE',  ( -0.000000000000000000, -1.000000000000000000, -0.000000000000000000 ) ) ;
#275 = DIRECTION ( 'NONE',  ( 0.000000000000000000, 0.000000000000000000, -1.000000000000000000 ) ) ;
#276 = CARTESIAN_POINT ( 'NONE',  ( -14.00000000000000000, 6.123233995736754943E-17, 0.000000000000000000 ) ) ;
#277 = ORIENTED_EDGE ( 'NONE', *, *, #116, .F. ) ;
#278 = ADVANCED_FACE ( 'NONE', ( #230, #175 ), #18, .F. ) ;
#279 = ORIENTED_EDGE ( 'NONE', *, *, #101, .F. ) ;
#280 = AXIS2_PLACEMENT_3D ( 'NONE', #106, #42, #182 ) ;
#281 = ORIENTED_EDGE ( 'NONE', *, *, #11, .T. ) ;
#282 = ORIENTED_EDGE ( 'NONE', *, *, #61, .F. ) ;
#283 = EDGE_CURVE ( 'NONE', #91, #198, #131, .T. ) ;
#284 = VECTOR ( 'NONE', #37, 1000.000000000000000 ) ;
#285 = DIRECTION ( 'NONE',  ( 0.000000000000000000, 0.000000000000000000, -1.000000000000000000 ) ) ;
#286 = CARTESIAN_POINT ( 'NONE',  ( -15.00000000000000000, 8.000000000000000000, 0.000000000000000000 ) ) ;
#287 = EDGE_CURVE ( 'NONE', #187, #10, #301, .T. ) ;
#288 = CYLINDRICAL_SURFACE ( 'NONE', #178, 13.99999999999999822 ) ;
#289 = CARTESIAN_POINT ( 'NONE',  ( 0.000000000000000000, 8.000000000000000000, 0.000000000000000000 ) ) ;
#290 = AXIS2_PLACEMENT_3D ( 'NONE', #261, #57, #82 ) ;
#291 = ORIENTED_EDGE ( 'NONE', *, *, #11, .F. ) ;
#292 = CARTESIAN_POINT ( 'NONE',  ( 0.000000000000000000, 0.000000000000000000, -15.12500000000000000 ) ) ;
#293 = ORIENTED_EDGE ( 'NONE', *, *, #287, .F. ) ;
#294 = CARTESIAN_POINT ( 'NONE',  ( 15.00000000000000000, 8.000000000000000000, -1.836970198721029589E-15 ) ) ;
#295 = ORIENTED_EDGE ( 'NONE', *, *, #233, .F. ) ;
#296 = DIRECTION ( 'NONE',  ( 0.000000000000000000, -1.000000000000000000, -0.000000000000000000 ) ) ;
#297 = AXIS2_PLACEMENT_3D ( 'NONE', #289, #56, #285 ) ;
#298 = VERTEX_POINT ( 'NONE', #248 ) ;
#299 = CARTESIAN_POINT ( 'NONE',  ( 0.000000000000000000, 8.000000000000000000, 0.000000000000000000 ) ) ;
#300 = VERTEX_POINT ( 'NONE', #253 ) ;
#301 = LINE ( 'NONE', #176, #185 ) ;
#302 = CARTESIAN_POINT ( 'NONE',  ( -14.02078748119740226, 3.310074307084089451, 28.04157496239481517 ) ) ;
#303 = CARTESIAN_POINT ( 'NONE',  ( 0.000000000000000000, 0.000000000000000000, 0.000000000000000000 ) ) ;
#304 = CARTESIAN_POINT ( 'NONE',  ( -14.99999999999999289, 8.000000000000000000, 29.99999999999999645 ) ) ;
#305 = COLOUR_RGB ( '',0.7921568627450980005, 0.8196078431372548767, 0.9333333333333333481 ) ;
#306 = ORIENTED_EDGE ( 'NONE', *, *, #283, .T. ) ;
#307 = CARTESIAN_POINT ( 'NONE',  ( -14.02078748119741114, 3.310074307084089451, -28.04157496239481162 ) ) ;
#308 = APPLICATION_PROTOCOL_DEFINITION ( 'draft international standard', 'automotive_design', 1998, #242 ) ;
#309 = CARTESIAN_POINT ( 'NONE',  ( 13.99999999999999822, 1.259186829400956054, -1.775737858763662015E-15 ) ) ;
#310 = CIRCLE ( 'NONE', #39, 15.12500000000000000 ) ;
ENDSEC;
END-ISO-10303-21;
