ISO-10303-21;
HEADER;
/* Generated by software containing ST-Developer
 * from STEP Tools, Inc. (www.steptools.com) 
 */
/* OPTION: using custom schema-name function */

FILE_DESCRIPTION(
/* description */ (''),
/* implementation_level */ '2;1');

FILE_NAME(
/* name */ 'Garnier limbs',
/* time_stamp */ '2022-09-06T11:06:20+02:00',
/* author */ (''),
/* organization */ (''),
/* preprocessor_version */ 'ST-DEVELOPER v16.5',
/* originating_system */ 'Rhino 7.21',
/* authorisation */ '');

FILE_SCHEMA (('CONFIG_CONTROL_DESIGN'));
ENDSEC;

DATA;
#10=SHAPE_REPRESENTATION_RELATIONSHIP('','',#282,#15);
#11=MANIFOLD_SOLID_BREP('brep_1',#16);
#12=MANIFOLD_SOLID_BREP('brep_2',#17);
#13=MANIFOLD_SOLID_BREP('brep_3',#18);
#14=MANIFOLD_SOLID_BREP('brep_4',#19);
#15=ADVANCED_BREP_SHAPE_REPRESENTATION('brep_rep_0',(#11,#12,#13,#14,#300),
#281);
#16=CLOSED_SHELL('',(#20,#21,#22,#23));
#17=CLOSED_SHELL('',(#24,#25,#26,#27));
#18=CLOSED_SHELL('',(#28,#29,#30,#31));
#19=CLOSED_SHELL('',(#32,#33,#34,#35));
#20=ADVANCED_FACE('',(#36),#188,.T.);
#21=ADVANCED_FACE('',(#37),#180,.T.);
#22=ADVANCED_FACE('',(#38),#181,.T.);
#23=ADVANCED_FACE('',(#39),#189,.T.);
#24=ADVANCED_FACE('',(#40),#190,.T.);
#25=ADVANCED_FACE('',(#41),#182,.T.);
#26=ADVANCED_FACE('',(#42),#183,.T.);
#27=ADVANCED_FACE('',(#43),#191,.T.);
#28=ADVANCED_FACE('',(#44),#192,.T.);
#29=ADVANCED_FACE('',(#45),#184,.T.);
#30=ADVANCED_FACE('',(#46),#185,.T.);
#31=ADVANCED_FACE('',(#47),#193,.T.);
#32=ADVANCED_FACE('',(#48),#194,.T.);
#33=ADVANCED_FACE('',(#49),#186,.T.);
#34=ADVANCED_FACE('',(#50),#187,.T.);
#35=ADVANCED_FACE('',(#51),#195,.T.);
#36=FACE_OUTER_BOUND('',#52,.T.);
#37=FACE_OUTER_BOUND('',#53,.T.);
#38=FACE_OUTER_BOUND('',#54,.T.);
#39=FACE_OUTER_BOUND('',#55,.T.);
#40=FACE_OUTER_BOUND('',#56,.T.);
#41=FACE_OUTER_BOUND('',#57,.T.);
#42=FACE_OUTER_BOUND('',#58,.T.);
#43=FACE_OUTER_BOUND('',#59,.T.);
#44=FACE_OUTER_BOUND('',#60,.T.);
#45=FACE_OUTER_BOUND('',#61,.T.);
#46=FACE_OUTER_BOUND('',#62,.T.);
#47=FACE_OUTER_BOUND('',#63,.T.);
#48=FACE_OUTER_BOUND('',#64,.T.);
#49=FACE_OUTER_BOUND('',#65,.T.);
#50=FACE_OUTER_BOUND('',#66,.T.);
#51=FACE_OUTER_BOUND('',#67,.T.);
#52=EDGE_LOOP('',(#68,#69,#70,#71));
#53=EDGE_LOOP('',(#72,#73));
#54=EDGE_LOOP('',(#74,#75));
#55=EDGE_LOOP('',(#76,#77,#78,#79));
#56=EDGE_LOOP('',(#80,#81,#82,#83));
#57=EDGE_LOOP('',(#84,#85));
#58=EDGE_LOOP('',(#86,#87));
#59=EDGE_LOOP('',(#88,#89,#90,#91));
#60=EDGE_LOOP('',(#92,#93,#94,#95));
#61=EDGE_LOOP('',(#96,#97));
#62=EDGE_LOOP('',(#98,#99));
#63=EDGE_LOOP('',(#100,#101,#102,#103));
#64=EDGE_LOOP('',(#104,#105,#106,#107));
#65=EDGE_LOOP('',(#108,#109));
#66=EDGE_LOOP('',(#110,#111));
#67=EDGE_LOOP('',(#112,#113,#114,#115));
#68=ORIENTED_EDGE('',*,*,#119,.T.);
#69=ORIENTED_EDGE('',*,*,#118,.F.);
#70=ORIENTED_EDGE('',*,*,#117,.F.);
#71=ORIENTED_EDGE('',*,*,#116,.T.);
#72=ORIENTED_EDGE('',*,*,#120,.F.);
#73=ORIENTED_EDGE('',*,*,#116,.F.);
#74=ORIENTED_EDGE('',*,*,#118,.T.);
#75=ORIENTED_EDGE('',*,*,#121,.T.);
#76=ORIENTED_EDGE('',*,*,#120,.T.);
#77=ORIENTED_EDGE('',*,*,#117,.T.);
#78=ORIENTED_EDGE('',*,*,#121,.F.);
#79=ORIENTED_EDGE('',*,*,#119,.F.);
#80=ORIENTED_EDGE('',*,*,#125,.T.);
#81=ORIENTED_EDGE('',*,*,#124,.F.);
#82=ORIENTED_EDGE('',*,*,#123,.F.);
#83=ORIENTED_EDGE('',*,*,#122,.T.);
#84=ORIENTED_EDGE('',*,*,#126,.F.);
#85=ORIENTED_EDGE('',*,*,#122,.F.);
#86=ORIENTED_EDGE('',*,*,#124,.T.);
#87=ORIENTED_EDGE('',*,*,#127,.T.);
#88=ORIENTED_EDGE('',*,*,#126,.T.);
#89=ORIENTED_EDGE('',*,*,#123,.T.);
#90=ORIENTED_EDGE('',*,*,#127,.F.);
#91=ORIENTED_EDGE('',*,*,#125,.F.);
#92=ORIENTED_EDGE('',*,*,#131,.T.);
#93=ORIENTED_EDGE('',*,*,#130,.F.);
#94=ORIENTED_EDGE('',*,*,#129,.F.);
#95=ORIENTED_EDGE('',*,*,#128,.T.);
#96=ORIENTED_EDGE('',*,*,#132,.F.);
#97=ORIENTED_EDGE('',*,*,#128,.F.);
#98=ORIENTED_EDGE('',*,*,#130,.T.);
#99=ORIENTED_EDGE('',*,*,#133,.T.);
#100=ORIENTED_EDGE('',*,*,#132,.T.);
#101=ORIENTED_EDGE('',*,*,#129,.T.);
#102=ORIENTED_EDGE('',*,*,#133,.F.);
#103=ORIENTED_EDGE('',*,*,#131,.F.);
#104=ORIENTED_EDGE('',*,*,#137,.T.);
#105=ORIENTED_EDGE('',*,*,#136,.F.);
#106=ORIENTED_EDGE('',*,*,#135,.F.);
#107=ORIENTED_EDGE('',*,*,#134,.T.);
#108=ORIENTED_EDGE('',*,*,#138,.F.);
#109=ORIENTED_EDGE('',*,*,#134,.F.);
#110=ORIENTED_EDGE('',*,*,#136,.T.);
#111=ORIENTED_EDGE('',*,*,#139,.T.);
#112=ORIENTED_EDGE('',*,*,#138,.T.);
#113=ORIENTED_EDGE('',*,*,#135,.T.);
#114=ORIENTED_EDGE('',*,*,#139,.F.);
#115=ORIENTED_EDGE('',*,*,#137,.F.);
#116=EDGE_CURVE('',#164,#166,#140,.T.);
#117=EDGE_CURVE('',#164,#165,#141,.T.);
#118=EDGE_CURVE('',#165,#167,#142,.T.);
#119=EDGE_CURVE('',#166,#167,#143,.T.);
#120=EDGE_CURVE('',#166,#164,#144,.T.);
#121=EDGE_CURVE('',#167,#165,#145,.T.);
#122=EDGE_CURVE('',#168,#170,#146,.T.);
#123=EDGE_CURVE('',#168,#169,#147,.T.);
#124=EDGE_CURVE('',#169,#171,#148,.T.);
#125=EDGE_CURVE('',#170,#171,#149,.T.);
#126=EDGE_CURVE('',#170,#168,#150,.T.);
#127=EDGE_CURVE('',#171,#169,#151,.T.);
#128=EDGE_CURVE('',#172,#174,#152,.T.);
#129=EDGE_CURVE('',#172,#173,#153,.T.);
#130=EDGE_CURVE('',#173,#175,#154,.T.);
#131=EDGE_CURVE('',#174,#175,#155,.T.);
#132=EDGE_CURVE('',#174,#172,#156,.T.);
#133=EDGE_CURVE('',#175,#173,#157,.T.);
#134=EDGE_CURVE('',#176,#178,#158,.T.);
#135=EDGE_CURVE('',#176,#177,#159,.T.);
#136=EDGE_CURVE('',#177,#179,#160,.T.);
#137=EDGE_CURVE('',#178,#179,#161,.T.);
#138=EDGE_CURVE('',#178,#176,#162,.T.);
#139=EDGE_CURVE('',#179,#177,#163,.T.);
#140=(
BOUNDED_CURVE()
B_SPLINE_CURVE(2,(#330,#331,#332,#333,#334),.UNSPECIFIED.,.F.,.F.)
B_SPLINE_CURVE_WITH_KNOTS((3,2,3),(-9.4247779607693,-7.06858347057698,-4.71238898038465),
 .UNSPECIFIED.)
CURVE()
GEOMETRIC_REPRESENTATION_ITEM()
RATIONAL_B_SPLINE_CURVE((1.,0.707106781186548,1.,0.707106781186548,1.))
REPRESENTATION_ITEM('')
);
#141=(
BOUNDED_CURVE()
B_SPLINE_CURVE(1,(#335,#336),.UNSPECIFIED.,.F.,.F.)
B_SPLINE_CURVE_WITH_KNOTS((2,2),(0.,4.),.UNSPECIFIED.)
CURVE()
GEOMETRIC_REPRESENTATION_ITEM()
RATIONAL_B_SPLINE_CURVE((1.,1.))
REPRESENTATION_ITEM('')
);
#142=(
BOUNDED_CURVE()
B_SPLINE_CURVE(2,(#337,#338,#339,#340,#341),.UNSPECIFIED.,.F.,.F.)
B_SPLINE_CURVE_WITH_KNOTS((3,2,3),(-9.4247779607693,-7.06858347057698,-4.71238898038465),
 .UNSPECIFIED.)
CURVE()
GEOMETRIC_REPRESENTATION_ITEM()
RATIONAL_B_SPLINE_CURVE((1.,0.707106781186548,1.,0.707106781186548,1.))
REPRESENTATION_ITEM('')
);
#143=(
BOUNDED_CURVE()
B_SPLINE_CURVE(1,(#342,#343),.UNSPECIFIED.,.F.,.F.)
B_SPLINE_CURVE_WITH_KNOTS((2,2),(0.,4.),.UNSPECIFIED.)
CURVE()
GEOMETRIC_REPRESENTATION_ITEM()
RATIONAL_B_SPLINE_CURVE((1.,1.))
REPRESENTATION_ITEM('')
);
#144=(
BOUNDED_CURVE()
B_SPLINE_CURVE(2,(#344,#345,#346,#347,#348),.UNSPECIFIED.,.F.,.F.)
B_SPLINE_CURVE_WITH_KNOTS((3,2,3),(-4.71238898038465,-2.35619449019232,
0.),.UNSPECIFIED.)
CURVE()
GEOMETRIC_REPRESENTATION_ITEM()
RATIONAL_B_SPLINE_CURVE((1.,0.707106781186548,1.,0.707106781186548,1.))
REPRESENTATION_ITEM('')
);
#145=(
BOUNDED_CURVE()
B_SPLINE_CURVE(2,(#349,#350,#351,#352,#353),.UNSPECIFIED.,.F.,.F.)
B_SPLINE_CURVE_WITH_KNOTS((3,2,3),(-4.71238898038465,-2.35619449019232,
0.),.UNSPECIFIED.)
CURVE()
GEOMETRIC_REPRESENTATION_ITEM()
RATIONAL_B_SPLINE_CURVE((1.,0.707106781186548,1.,0.707106781186548,1.))
REPRESENTATION_ITEM('')
);
#146=(
BOUNDED_CURVE()
B_SPLINE_CURVE(2,(#362,#363,#364,#365,#366),.UNSPECIFIED.,.F.,.F.)
B_SPLINE_CURVE_WITH_KNOTS((3,2,3),(-9.4247779607693,-7.06858347057698,-4.71238898038465),
 .UNSPECIFIED.)
CURVE()
GEOMETRIC_REPRESENTATION_ITEM()
RATIONAL_B_SPLINE_CURVE((1.,0.707106781186548,1.,0.707106781186548,1.))
REPRESENTATION_ITEM('')
);
#147=(
BOUNDED_CURVE()
B_SPLINE_CURVE(1,(#367,#368),.UNSPECIFIED.,.F.,.F.)
B_SPLINE_CURVE_WITH_KNOTS((2,2),(0.,13.),.UNSPECIFIED.)
CURVE()
GEOMETRIC_REPRESENTATION_ITEM()
RATIONAL_B_SPLINE_CURVE((1.,1.))
REPRESENTATION_ITEM('')
);
#148=(
BOUNDED_CURVE()
B_SPLINE_CURVE(2,(#369,#370,#371,#372,#373),.UNSPECIFIED.,.F.,.F.)
B_SPLINE_CURVE_WITH_KNOTS((3,2,3),(-9.4247779607693,-7.06858347057698,-4.71238898038465),
 .UNSPECIFIED.)
CURVE()
GEOMETRIC_REPRESENTATION_ITEM()
RATIONAL_B_SPLINE_CURVE((1.,0.707106781186548,1.,0.707106781186548,1.))
REPRESENTATION_ITEM('')
);
#149=(
BOUNDED_CURVE()
B_SPLINE_CURVE(1,(#374,#375),.UNSPECIFIED.,.F.,.F.)
B_SPLINE_CURVE_WITH_KNOTS((2,2),(0.,13.),.UNSPECIFIED.)
CURVE()
GEOMETRIC_REPRESENTATION_ITEM()
RATIONAL_B_SPLINE_CURVE((1.,1.))
REPRESENTATION_ITEM('')
);
#150=(
BOUNDED_CURVE()
B_SPLINE_CURVE(2,(#376,#377,#378,#379,#380),.UNSPECIFIED.,.F.,.F.)
B_SPLINE_CURVE_WITH_KNOTS((3,2,3),(-4.71238898038465,-2.35619449019232,
0.),.UNSPECIFIED.)
CURVE()
GEOMETRIC_REPRESENTATION_ITEM()
RATIONAL_B_SPLINE_CURVE((1.,0.707106781186548,1.,0.707106781186548,1.))
REPRESENTATION_ITEM('')
);
#151=(
BOUNDED_CURVE()
B_SPLINE_CURVE(2,(#381,#382,#383,#384,#385),.UNSPECIFIED.,.F.,.F.)
B_SPLINE_CURVE_WITH_KNOTS((3,2,3),(-4.71238898038465,-2.35619449019232,
0.),.UNSPECIFIED.)
CURVE()
GEOMETRIC_REPRESENTATION_ITEM()
RATIONAL_B_SPLINE_CURVE((1.,0.707106781186548,1.,0.707106781186548,1.))
REPRESENTATION_ITEM('')
);
#152=(
BOUNDED_CURVE()
B_SPLINE_CURVE(2,(#394,#395,#396,#397,#398),.UNSPECIFIED.,.F.,.F.)
B_SPLINE_CURVE_WITH_KNOTS((3,2,3),(-9.42477796076938,-7.06858347057704,
-4.71238898038469),.UNSPECIFIED.)
CURVE()
GEOMETRIC_REPRESENTATION_ITEM()
RATIONAL_B_SPLINE_CURVE((1.,0.707106781186548,1.,0.707106781186548,1.))
REPRESENTATION_ITEM('')
);
#153=(
BOUNDED_CURVE()
B_SPLINE_CURVE(1,(#399,#400),.UNSPECIFIED.,.F.,.F.)
B_SPLINE_CURVE_WITH_KNOTS((2,2),(0.,15.),.UNSPECIFIED.)
CURVE()
GEOMETRIC_REPRESENTATION_ITEM()
RATIONAL_B_SPLINE_CURVE((1.,1.))
REPRESENTATION_ITEM('')
);
#154=(
BOUNDED_CURVE()
B_SPLINE_CURVE(2,(#401,#402,#403,#404,#405),.UNSPECIFIED.,.F.,.F.)
B_SPLINE_CURVE_WITH_KNOTS((3,2,3),(-9.42477796076938,-7.06858347057704,
-4.71238898038469),.UNSPECIFIED.)
CURVE()
GEOMETRIC_REPRESENTATION_ITEM()
RATIONAL_B_SPLINE_CURVE((1.,0.707106781186548,1.,0.707106781186548,1.))
REPRESENTATION_ITEM('')
);
#155=(
BOUNDED_CURVE()
B_SPLINE_CURVE(1,(#406,#407),.UNSPECIFIED.,.F.,.F.)
B_SPLINE_CURVE_WITH_KNOTS((2,2),(0.,15.),.UNSPECIFIED.)
CURVE()
GEOMETRIC_REPRESENTATION_ITEM()
RATIONAL_B_SPLINE_CURVE((1.,1.))
REPRESENTATION_ITEM('')
);
#156=(
BOUNDED_CURVE()
B_SPLINE_CURVE(2,(#408,#409,#410,#411,#412),.UNSPECIFIED.,.F.,.F.)
B_SPLINE_CURVE_WITH_KNOTS((3,2,3),(-4.71238898038469,-2.35619449019235,
0.),.UNSPECIFIED.)
CURVE()
GEOMETRIC_REPRESENTATION_ITEM()
RATIONAL_B_SPLINE_CURVE((1.,0.707106781186548,1.,0.707106781186548,1.))
REPRESENTATION_ITEM('')
);
#157=(
BOUNDED_CURVE()
B_SPLINE_CURVE(2,(#413,#414,#415,#416,#417),.UNSPECIFIED.,.F.,.F.)
B_SPLINE_CURVE_WITH_KNOTS((3,2,3),(-4.71238898038469,-2.35619449019235,
0.),.UNSPECIFIED.)
CURVE()
GEOMETRIC_REPRESENTATION_ITEM()
RATIONAL_B_SPLINE_CURVE((1.,0.707106781186548,1.,0.707106781186548,1.))
REPRESENTATION_ITEM('')
);
#158=(
BOUNDED_CURVE()
B_SPLINE_CURVE(2,(#426,#427,#428,#429,#430),.UNSPECIFIED.,.F.,.F.)
B_SPLINE_CURVE_WITH_KNOTS((3,2,3),(-25.1327412287183,-18.8495559215388,
-12.5663706143592),.UNSPECIFIED.)
CURVE()
GEOMETRIC_REPRESENTATION_ITEM()
RATIONAL_B_SPLINE_CURVE((1.,0.707106781186548,1.,0.707106781186548,1.))
REPRESENTATION_ITEM('')
);
#159=(
BOUNDED_CURVE()
B_SPLINE_CURVE(1,(#431,#432),.UNSPECIFIED.,.F.,.F.)
B_SPLINE_CURVE_WITH_KNOTS((2,2),(0.,5.5),.UNSPECIFIED.)
CURVE()
GEOMETRIC_REPRESENTATION_ITEM()
RATIONAL_B_SPLINE_CURVE((1.,1.))
REPRESENTATION_ITEM('')
);
#160=(
BOUNDED_CURVE()
B_SPLINE_CURVE(2,(#433,#434,#435,#436,#437),.UNSPECIFIED.,.F.,.F.)
B_SPLINE_CURVE_WITH_KNOTS((3,2,3),(-25.1327412287183,-18.8495559215388,
-12.5663706143592),.UNSPECIFIED.)
CURVE()
GEOMETRIC_REPRESENTATION_ITEM()
RATIONAL_B_SPLINE_CURVE((1.,0.707106781186548,1.,0.707106781186548,1.))
REPRESENTATION_ITEM('')
);
#161=(
BOUNDED_CURVE()
B_SPLINE_CURVE(1,(#438,#439),.UNSPECIFIED.,.F.,.F.)
B_SPLINE_CURVE_WITH_KNOTS((2,2),(0.,5.5),.UNSPECIFIED.)
CURVE()
GEOMETRIC_REPRESENTATION_ITEM()
RATIONAL_B_SPLINE_CURVE((1.,1.))
REPRESENTATION_ITEM('')
);
#162=(
BOUNDED_CURVE()
B_SPLINE_CURVE(2,(#440,#441,#442,#443,#444),.UNSPECIFIED.,.F.,.F.)
B_SPLINE_CURVE_WITH_KNOTS((3,2,3),(-12.5663706143592,-6.28318530717959,
0.),.UNSPECIFIED.)
CURVE()
GEOMETRIC_REPRESENTATION_ITEM()
RATIONAL_B_SPLINE_CURVE((1.,0.707106781186548,1.,0.707106781186548,1.))
REPRESENTATION_ITEM('')
);
#163=(
BOUNDED_CURVE()
B_SPLINE_CURVE(2,(#445,#446,#447,#448,#449),.UNSPECIFIED.,.F.,.F.)
B_SPLINE_CURVE_WITH_KNOTS((3,2,3),(-12.5663706143592,-6.28318530717959,
0.),.UNSPECIFIED.)
CURVE()
GEOMETRIC_REPRESENTATION_ITEM()
RATIONAL_B_SPLINE_CURVE((1.,0.707106781186548,1.,0.707106781186548,1.))
REPRESENTATION_ITEM('')
);
#164=VERTEX_POINT('',#326);
#165=VERTEX_POINT('',#327);
#166=VERTEX_POINT('',#328);
#167=VERTEX_POINT('',#329);
#168=VERTEX_POINT('',#358);
#169=VERTEX_POINT('',#359);
#170=VERTEX_POINT('',#360);
#171=VERTEX_POINT('',#361);
#172=VERTEX_POINT('',#390);
#173=VERTEX_POINT('',#391);
#174=VERTEX_POINT('',#392);
#175=VERTEX_POINT('',#393);
#176=VERTEX_POINT('',#422);
#177=VERTEX_POINT('',#423);
#178=VERTEX_POINT('',#424);
#179=VERTEX_POINT('',#425);
#180=PLANE('',#285);
#181=PLANE('',#286);
#182=PLANE('',#289);
#183=PLANE('',#290);
#184=PLANE('',#293);
#185=PLANE('',#294);
#186=PLANE('',#297);
#187=PLANE('',#298);
#188=CYLINDRICAL_SURFACE('',#284,1.49999999999999);
#189=CYLINDRICAL_SURFACE('',#287,1.49999999999999);
#190=CYLINDRICAL_SURFACE('',#288,1.49999999999999);
#191=CYLINDRICAL_SURFACE('',#291,1.49999999999999);
#192=CYLINDRICAL_SURFACE('',#292,1.5);
#193=CYLINDRICAL_SURFACE('',#295,1.5);
#194=CYLINDRICAL_SURFACE('',#296,4.);
#195=CYLINDRICAL_SURFACE('',#299,4.);
#196=SHAPE_DEFINITION_REPRESENTATION(#197,#282);
#197=PRODUCT_DEFINITION_SHAPE('Document','',#199);
#198=PRODUCT_DEFINITION_CONTEXT('3D Mechanical Parts',#271,'design');
#199=PRODUCT_DEFINITION('A','First version',#241,#198);
#200=DATE_TIME_ROLE('classification_date');
#201=DATE_TIME_ROLE('creation_date');
#202=APPLIED_DATE_AND_TIME_ASSIGNMENT(#226,#200,(#205));
#203=APPLIED_DATE_AND_TIME_ASSIGNMENT(#228,#201,(#199));
#204=SECURITY_CLASSIFICATION_LEVEL('unclassified');
#205=SECURITY_CLASSIFICATION('A','Security for version',#204);
#206=APPLIED_SECURITY_CLASSIFICATION_ASSIGNMENT(#205,(#241));
#207=APPROVAL_ROLE('Version approval');
#208=APPROVAL_ROLE('Version Security approval');
#209=APPROVAL_ROLE('Definition approval');
#210=APPROVAL_PERSON_ORGANIZATION(#259,#235,#207);
#211=APPROVAL_PERSON_ORGANIZATION(#260,#236,#208);
#212=APPROVAL_PERSON_ORGANIZATION(#263,#237,#209);
#213=COORDINATED_UNIVERSAL_TIME_OFFSET(5,0,.BEHIND.);
#214=LOCAL_TIME(0,0,0.,#213);
#215=LOCAL_TIME(0,0,0.,#213);
#216=LOCAL_TIME(0,0,0.,#213);
#217=LOCAL_TIME(0,0,0.,#213);
#218=LOCAL_TIME(0,0,0.,#213);
#219=CALENDAR_DATE(1999,1,1);
#220=CALENDAR_DATE(1999,1,1);
#221=CALENDAR_DATE(1999,1,1);
#222=CALENDAR_DATE(1999,1,1);
#223=CALENDAR_DATE(1999,1,1);
#224=DATE_AND_TIME(#219,#214);
#225=DATE_AND_TIME(#220,#215);
#226=DATE_AND_TIME(#221,#216);
#227=DATE_AND_TIME(#222,#217);
#228=DATE_AND_TIME(#223,#218);
#229=APPROVAL_DATE_TIME(#224,#235);
#230=APPROVAL_DATE_TIME(#225,#236);
#231=APPROVAL_DATE_TIME(#227,#237);
#232=APPROVAL_STATUS('not_yet_approved');
#233=APPROVAL_STATUS('not_yet_approved');
#234=APPROVAL_STATUS('approved');
#235=APPROVAL(#232,'Version approval');
#236=APPROVAL(#233,'Version Security approval');
#237=APPROVAL(#234,'Definition approval');
#238=APPLIED_APPROVAL_ASSIGNMENT(#235,(#241));
#239=APPLIED_APPROVAL_ASSIGNMENT(#236,(#205));
#240=APPLIED_APPROVAL_ASSIGNMENT(#237,(#199));
#241=PRODUCT_DEFINITION_FORMATION_WITH_SPECIFIED_SOURCE('A',
'First version',#273,.MADE.);
#242=PERSON_AND_ORGANIZATION_ROLE('design_owner');
#243=PERSON_AND_ORGANIZATION_ROLE('creator');
#244=PERSON_AND_ORGANIZATION_ROLE('design_supplier');
#245=PERSON_AND_ORGANIZATION_ROLE('classification_officer');
#246=PERSON_AND_ORGANIZATION_ROLE('creator');
#247=ORGANIZATION('STI','lab','lab');
#248=ORGANIZATION('STI','unknown','unknown');
#249=ORGANIZATION('STI','unknown','unknown');
#250=ORGANIZATION('STI','unknown','unknown');
#251=ORGANIZATION('STI','unknown','unknown');
#252=ORGANIZATION('STI','unknown','unknown');
#253=ORGANIZATION('STI','unknown','unknown');
#254=PERSON('1','Box','vc60',$,$,$);
#255=PERSON('2','last','first',$,$,$);
#256=PERSON('3','President','Mr.',$,$,$);
#257=PERSON_AND_ORGANIZATION(#254,#247);
#258=PERSON_AND_ORGANIZATION(#255,#248);
#259=PERSON_AND_ORGANIZATION(#256,#249);
#260=PERSON_AND_ORGANIZATION(#256,#250);
#261=PERSON_AND_ORGANIZATION(#256,#251);
#262=PERSON_AND_ORGANIZATION(#255,#252);
#263=PERSON_AND_ORGANIZATION(#256,#253);
#264=APPLIED_PERSON_AND_ORGANIZATION_ASSIGNMENT(#257,#242,(#273));
#265=APPLIED_PERSON_AND_ORGANIZATION_ASSIGNMENT(#258,#243,(#241));
#266=APPLIED_PERSON_AND_ORGANIZATION_ASSIGNMENT(#258,#244,(#241));
#267=APPLIED_PERSON_AND_ORGANIZATION_ASSIGNMENT(#261,#245,(#205));
#268=APPLIED_PERSON_AND_ORGANIZATION_ASSIGNMENT(#262,#246,(#199));
#269=PRODUCT_RELATED_PRODUCT_CATEGORY('detail','detail',(#273));
#270=APPLICATION_PROTOCOL_DEFINITION('International Standard',
'config_control_design',1994,#271);
#271=APPLICATION_CONTEXT(
'configuration controlled 3d designs of mechanical parts and assemblie
s');
#272=PRODUCT_CONTEXT('3D Mechanical Parts',#271,'mechanical');
#273=PRODUCT('Document','Document','',(#272));
#274=(
LENGTH_UNIT()
NAMED_UNIT(*)
SI_UNIT(.CENTI.,.METRE.)
);
#275=(
NAMED_UNIT(*)
PLANE_ANGLE_UNIT()
SI_UNIT($,.RADIAN.)
);
#276=DIMENSIONAL_EXPONENTS(0.,0.,0.,0.,0.,0.,0.);
#277=PLANE_ANGLE_MEASURE_WITH_UNIT(PLANE_ANGLE_MEASURE(0.01745329252),#275);
#278=(
CONVERSION_BASED_UNIT('DEGREES',#277)
NAMED_UNIT(#276)
PLANE_ANGLE_UNIT()
);
#279=(
NAMED_UNIT(*)
SI_UNIT($,.STERADIAN.)
SOLID_ANGLE_UNIT()
);
#280=UNCERTAINTY_MEASURE_WITH_UNIT(LENGTH_MEASURE(0.001),#274,
'DISTANCE_ACCURACY_VALUE',
'Maximum model space distance between geometric entities at asserted c
onnectivities');
#281=(
GEOMETRIC_REPRESENTATION_CONTEXT(3)
GLOBAL_UNCERTAINTY_ASSIGNED_CONTEXT((#280))
GLOBAL_UNIT_ASSIGNED_CONTEXT((#279,#278,#274))
REPRESENTATION_CONTEXT('ID1','3D')
);
#282=SHAPE_REPRESENTATION('Document',(#283,#300),#281);
#283=AXIS2_PLACEMENT_3D('',#321,#301,#302);
#284=AXIS2_PLACEMENT_3D('',#322,#303,$);
#285=AXIS2_PLACEMENT_3D('',#323,#304,$);
#286=AXIS2_PLACEMENT_3D('',#324,#305,$);
#287=AXIS2_PLACEMENT_3D('',#325,#306,$);
#288=AXIS2_PLACEMENT_3D('',#354,#307,$);
#289=AXIS2_PLACEMENT_3D('',#355,#308,$);
#290=AXIS2_PLACEMENT_3D('',#356,#309,$);
#291=AXIS2_PLACEMENT_3D('',#357,#310,$);
#292=AXIS2_PLACEMENT_3D('',#386,#311,$);
#293=AXIS2_PLACEMENT_3D('',#387,#312,$);
#294=AXIS2_PLACEMENT_3D('',#388,#313,$);
#295=AXIS2_PLACEMENT_3D('',#389,#314,$);
#296=AXIS2_PLACEMENT_3D('',#418,#315,$);
#297=AXIS2_PLACEMENT_3D('',#419,#316,$);
#298=AXIS2_PLACEMENT_3D('',#420,#317,$);
#299=AXIS2_PLACEMENT_3D('',#421,#318,$);
#300=AXIS2_PLACEMENT_3D('',#450,#319,#320);
#301=DIRECTION('',(0.,0.,1.));
#302=DIRECTION('',(1.,0.,0.));
#303=DIRECTION('',(-1.,0.,0.));
#304=DIRECTION('',(1.,0.,0.));
#305=DIRECTION('',(-1.,0.,0.));
#306=DIRECTION('',(-1.,0.,0.));
#307=DIRECTION('',(-1.,0.,0.));
#308=DIRECTION('',(1.,0.,0.));
#309=DIRECTION('',(-1.,0.,0.));
#310=DIRECTION('',(-1.,0.,0.));
#311=DIRECTION('',(-1.,0.,0.));
#312=DIRECTION('',(1.,0.,0.));
#313=DIRECTION('',(-1.,0.,0.));
#314=DIRECTION('',(-1.,0.,0.));
#315=DIRECTION('',(-1.,0.,0.));
#316=DIRECTION('',(1.,0.,0.));
#317=DIRECTION('',(-1.,0.,0.));
#318=DIRECTION('',(-1.,0.,0.));
#319=DIRECTION('',(0.,0.,1.));
#320=DIRECTION('',(1.,0.,0.));
#321=CARTESIAN_POINT('',(0.,0.,0.));
#322=CARTESIAN_POINT('',(-73.5,2.22044604925031E-16,-1.99999999999999));
#323=CARTESIAN_POINT('',(-71.5,1.87499999999998,-3.87499999999997));
#324=CARTESIAN_POINT('',(-75.5,1.87499999999998,-3.87499999999997));
#325=CARTESIAN_POINT('',(-73.5,7.00833052123253E-16,-1.99999999999999));
#326=CARTESIAN_POINT('',(-71.5,0.18536292031848,-0.511497199273375));
#327=CARTESIAN_POINT('',(-75.5,0.18536292031848,-0.511497199273375));
#328=CARTESIAN_POINT('',(-71.5,-0.185362920318479,-3.4885028007266));
#329=CARTESIAN_POINT('',(-75.5,-0.185362920318479,-3.4885028007266));
#330=CARTESIAN_POINT('',(-71.5,0.18536292031848,-0.511497199273375));
#331=CARTESIAN_POINT('',(-71.5,1.67386572104509,-0.696860119591855));
#332=CARTESIAN_POINT('',(-71.5,1.48850280072661,-2.18536292031847));
#333=CARTESIAN_POINT('',(-71.5,1.30313988040813,-3.67386572104508));
#334=CARTESIAN_POINT('',(-71.5,-0.185362920318479,-3.4885028007266));
#335=CARTESIAN_POINT('',(-71.5,0.18536292031848,-0.511497199273375));
#336=CARTESIAN_POINT('',(-75.5,0.18536292031848,-0.511497199273375));
#337=CARTESIAN_POINT('',(-75.5,0.18536292031848,-0.511497199273375));
#338=CARTESIAN_POINT('',(-75.5,1.67386572104509,-0.696860119591855));
#339=CARTESIAN_POINT('',(-75.5,1.48850280072661,-2.18536292031847));
#340=CARTESIAN_POINT('',(-75.5,1.30313988040813,-3.67386572104508));
#341=CARTESIAN_POINT('',(-75.5,-0.185362920318479,-3.4885028007266));
#342=CARTESIAN_POINT('',(-71.5,-0.185362920318479,-3.4885028007266));
#343=CARTESIAN_POINT('',(-75.5,-0.185362920318479,-3.4885028007266));
#344=CARTESIAN_POINT('',(-71.5,-0.185362920318479,-3.4885028007266));
#345=CARTESIAN_POINT('',(-71.5,-1.67386572104509,-3.30313988040812));
#346=CARTESIAN_POINT('',(-71.5,-1.48850280072661,-1.81463707968151));
#347=CARTESIAN_POINT('',(-71.5,-1.30313988040813,-0.326134278954896));
#348=CARTESIAN_POINT('',(-71.5,0.18536292031848,-0.511497199273375));
#349=CARTESIAN_POINT('',(-75.5,-0.185362920318479,-3.4885028007266));
#350=CARTESIAN_POINT('',(-75.5,-1.67386572104509,-3.30313988040812));
#351=CARTESIAN_POINT('',(-75.5,-1.48850280072661,-1.81463707968151));
#352=CARTESIAN_POINT('',(-75.5,-1.30313988040813,-0.326134278954896));
#353=CARTESIAN_POINT('',(-75.5,0.18536292031848,-0.511497199273375));
#354=CARTESIAN_POINT('',(-65.,-2.22044604925031E-16,-1.99999999999999));
#355=CARTESIAN_POINT('',(-58.5,1.87499999999998,-3.87499999999997));
#356=CARTESIAN_POINT('',(-71.5,1.87499999999998,-3.87499999999997));
#357=CARTESIAN_POINT('',(-65.,5.67261031529968E-16,-1.99999999999999));
#358=CARTESIAN_POINT('',(-58.5,0.347191021673916,-0.540733610861601));
#359=CARTESIAN_POINT('',(-71.5,0.347191021673916,-0.540733610861601));
#360=CARTESIAN_POINT('',(-58.5,-0.347191021673915,-3.45926638913837));
#361=CARTESIAN_POINT('',(-71.5,-0.347191021673915,-3.45926638913837));
#362=CARTESIAN_POINT('',(-58.5,0.347191021673916,-0.540733610861601));
#363=CARTESIAN_POINT('',(-58.5,1.8064574108123,-0.887924632535517));
#364=CARTESIAN_POINT('',(-58.5,1.45926638913839,-2.3471910216739));
#365=CARTESIAN_POINT('',(-58.5,1.11207536746447,-3.80645741081229));
#366=CARTESIAN_POINT('',(-58.5,-0.347191021673915,-3.45926638913837));
#367=CARTESIAN_POINT('',(-58.5,0.347191021673916,-0.540733610861601));
#368=CARTESIAN_POINT('',(-71.5,0.347191021673916,-0.540733610861601));
#369=CARTESIAN_POINT('',(-71.5,0.347191021673916,-0.540733610861601));
#370=CARTESIAN_POINT('',(-71.5,1.8064574108123,-0.887924632535517));
#371=CARTESIAN_POINT('',(-71.5,1.45926638913839,-2.3471910216739));
#372=CARTESIAN_POINT('',(-71.5,1.11207536746447,-3.80645741081229));
#373=CARTESIAN_POINT('',(-71.5,-0.347191021673915,-3.45926638913837));
#374=CARTESIAN_POINT('',(-58.5,-0.347191021673915,-3.45926638913837));
#375=CARTESIAN_POINT('',(-71.5,-0.347191021673915,-3.45926638913837));
#376=CARTESIAN_POINT('',(-58.5,-0.347191021673915,-3.45926638913837));
#377=CARTESIAN_POINT('',(-58.5,-1.8064574108123,-3.11207536746446));
#378=CARTESIAN_POINT('',(-58.5,-1.45926638913839,-1.65280897832607));
#379=CARTESIAN_POINT('',(-58.5,-1.11207536746447,-0.193542589187685));
#380=CARTESIAN_POINT('',(-58.5,0.347191021673916,-0.540733610861601));
#381=CARTESIAN_POINT('',(-71.5,-0.347191021673915,-3.45926638913837));
#382=CARTESIAN_POINT('',(-71.5,-1.8064574108123,-3.11207536746446));
#383=CARTESIAN_POINT('',(-71.5,-1.45926638913839,-1.65280897832607));
#384=CARTESIAN_POINT('',(-71.5,-1.11207536746447,-0.193542589187685));
#385=CARTESIAN_POINT('',(-71.5,0.347191021673916,-0.540733610861601));
#386=CARTESIAN_POINT('',(-45.5,2.17734517992907E-16,-2.));
#387=CARTESIAN_POINT('',(-38.,1.875,-3.875));
#388=CARTESIAN_POINT('',(-53.,1.875,-3.875));
#389=CARTESIAN_POINT('',(-45.5,4.35469035985815E-16,-2.));
#390=CARTESIAN_POINT('',(-38.,0.832103873739743,-0.751960279755763));
#391=CARTESIAN_POINT('',(-53.,0.832103873739743,-0.751960279755763));
#392=CARTESIAN_POINT('',(-38.,-0.832103873739743,-3.24803972024424));
#393=CARTESIAN_POINT('',(-53.,-0.832103873739743,-3.24803972024424));
#394=CARTESIAN_POINT('',(-38.,0.832103873739743,-0.751960279755763));
#395=CARTESIAN_POINT('',(-38.,2.08014359398398,-1.58406415349551));
#396=CARTESIAN_POINT('',(-38.,1.24803972024424,-2.83210387373974));
#397=CARTESIAN_POINT('',(-38.,0.415935846504494,-4.08014359398398));
#398=CARTESIAN_POINT('',(-38.,-0.832103873739743,-3.24803972024424));
#399=CARTESIAN_POINT('',(-38.,0.832103873739743,-0.751960279755763));
#400=CARTESIAN_POINT('',(-53.,0.832103873739743,-0.751960279755763));
#401=CARTESIAN_POINT('',(-53.,0.832103873739743,-0.751960279755763));
#402=CARTESIAN_POINT('',(-53.,2.08014359398398,-1.58406415349551));
#403=CARTESIAN_POINT('',(-53.,1.24803972024424,-2.83210387373974));
#404=CARTESIAN_POINT('',(-53.,0.415935846504494,-4.08014359398398));
#405=CARTESIAN_POINT('',(-53.,-0.832103873739743,-3.24803972024424));
#406=CARTESIAN_POINT('',(-38.,-0.832103873739743,-3.24803972024424));
#407=CARTESIAN_POINT('',(-53.,-0.832103873739743,-3.24803972024424));
#408=CARTESIAN_POINT('',(-38.,-0.832103873739743,-3.24803972024424));
#409=CARTESIAN_POINT('',(-38.,-2.08014359398398,-2.41593584650449));
#410=CARTESIAN_POINT('',(-38.,-1.24803972024424,-1.16789612626026));
#411=CARTESIAN_POINT('',(-38.,-0.415935846504494,0.0801435939839801));
#412=CARTESIAN_POINT('',(-38.,0.832103873739743,-0.751960279755763));
#413=CARTESIAN_POINT('',(-53.,-0.832103873739743,-3.24803972024424));
#414=CARTESIAN_POINT('',(-53.,-2.08014359398398,-2.41593584650449));
#415=CARTESIAN_POINT('',(-53.,-1.24803972024424,-1.16789612626026));
#416=CARTESIAN_POINT('',(-53.,-0.415935846504494,0.0801435939839801));
#417=CARTESIAN_POINT('',(-53.,0.832103873739743,-0.751960279755763));
#418=CARTESIAN_POINT('',(-55.75,4.44089209850063E-16,-1.99999999999999));
#419=CARTESIAN_POINT('',(-53.,5.,-6.99999999999999));
#420=CARTESIAN_POINT('',(-58.5,5.,-6.99999999999999));
#421=CARTESIAN_POINT('',(-55.75,2.22044604925031E-16,-1.99999999999999));
#422=CARTESIAN_POINT('',(-53.,4.,-1.99999999999999));
#423=CARTESIAN_POINT('',(-58.5,4.,-1.99999999999999));
#424=CARTESIAN_POINT('',(-53.,-4.,-1.99999999999999));
#425=CARTESIAN_POINT('',(-58.5,-4.,-1.99999999999999));
#426=CARTESIAN_POINT('',(-53.,4.,-1.99999999999999));
#427=CARTESIAN_POINT('',(-53.,4.,-5.99999999999999));
#428=CARTESIAN_POINT('',(-53.,-8.88178419700125E-16,-5.99999999999999));
#429=CARTESIAN_POINT('',(-53.,-4.,-5.99999999999999));
#430=CARTESIAN_POINT('',(-53.,-4.,-1.99999999999999));
#431=CARTESIAN_POINT('',(-53.,4.,-1.99999999999999));
#432=CARTESIAN_POINT('',(-58.5,4.,-1.99999999999999));
#433=CARTESIAN_POINT('',(-58.5,4.,-1.99999999999999));
#434=CARTESIAN_POINT('',(-58.5,4.,-5.99999999999999));
#435=CARTESIAN_POINT('',(-58.5,-8.88178419700125E-16,-5.99999999999999));
#436=CARTESIAN_POINT('',(-58.5,-4.,-5.99999999999999));
#437=CARTESIAN_POINT('',(-58.5,-4.,-1.99999999999999));
#438=CARTESIAN_POINT('',(-53.,-4.,-1.99999999999999));
#439=CARTESIAN_POINT('',(-58.5,-4.,-1.99999999999999));
#440=CARTESIAN_POINT('',(-53.,-4.,-1.99999999999999));
#441=CARTESIAN_POINT('',(-53.,-4.,2.00000000000001));
#442=CARTESIAN_POINT('',(-53.,1.77635683940025E-15,2.00000000000001));
#443=CARTESIAN_POINT('',(-53.,4.,2.00000000000001));
#444=CARTESIAN_POINT('',(-53.,4.,-1.99999999999999));
#445=CARTESIAN_POINT('',(-58.5,-4.,-1.99999999999999));
#446=CARTESIAN_POINT('',(-58.5,-4.,2.00000000000001));
#447=CARTESIAN_POINT('',(-58.5,1.77635683940025E-15,2.00000000000001));
#448=CARTESIAN_POINT('',(-58.5,4.,2.00000000000001));
#449=CARTESIAN_POINT('',(-58.5,4.,-1.99999999999999));
#450=CARTESIAN_POINT('',(0.,0.,0.));
ENDSEC;
END-ISO-10303-21;
