ISO-10303-21;
HEADER;
/* Generated by software containing ST-Developer
 * from STEP Tools, Inc. (www.steptools.com) 
 */

FILE_DESCRIPTION(
/* description */ (''),
/* implementation_level */ '2;1');

FILE_NAME(
/* name */ 'C:/Users/DFQC7241/Downloads/Hoven-sides.stp',
/* time_stamp */ '2022-09-05T14:07:54+02:00',
/* author */ (''),
/* organization */ (''),
/* preprocessor_version */ 'ST-DEVELOPER v15.2',
/* originating_system */ 'Autodesk Translator Framework v2.0.0.5431',
/* authorisation */ '');

FILE_SCHEMA (('AUTOMOTIVE_DESIGN { 1 0 10303 214 3 1 1 }'));
ENDSEC;

DATA;
#10=SHAPE_REPRESENTATION_RELATIONSHIP('SRR','None',#207,#11);
#11=ADVANCED_BREP_SHAPE_REPRESENTATION($,(#127),#201);
#12=STYLED_ITEM($,(#215),#127);
#13=FACE_OUTER_BOUND($,#20,.T.);
#14=FACE_OUTER_BOUND($,#21,.T.);
#15=FACE_OUTER_BOUND($,#22,.T.);
#16=FACE_OUTER_BOUND($,#23,.T.);
#17=FACE_OUTER_BOUND($,#24,.T.);
#18=FACE_OUTER_BOUND($,#25,.T.);
#19=FACE_OUTER_BOUND($,#26,.T.);
#20=EDGE_LOOP($,(#82,#83,#84,#85,#86));
#21=EDGE_LOOP($,(#87,#88,#89,#90));
#22=EDGE_LOOP($,(#91,#92,#93,#94,#95));
#23=EDGE_LOOP($,(#96,#97,#98,#99));
#24=EDGE_LOOP($,(#100,#101,#102,#103));
#25=EDGE_LOOP($,(#104,#105,#106,#107));
#26=EDGE_LOOP($,(#108,#109,#110,#111));
#27=LINE($,#171,#42);
#28=LINE($,#173,#43);
#29=LINE($,#175,#44);
#30=LINE($,#177,#45);
#31=LINE($,#178,#46);
#32=LINE($,#182,#47);
#33=LINE($,#183,#48);
#34=LINE($,#184,#49);
#35=LINE($,#188,#50);
#36=LINE($,#189,#51);
#37=LINE($,#191,#52);
#38=LINE($,#192,#53);
#39=LINE($,#194,#54);
#40=LINE($,#196,#55);
#41=LINE($,#198,#56);
#42=VECTOR($,#140,33.1);
#43=VECTOR($,#141,62.2);
#44=VECTOR($,#142,54.5);
#45=VECTOR($,#143,45.5);
#46=VECTOR($,#144,27.144981119905);
#47=VECTOR($,#147,27.144981119905);
#48=VECTOR($,#148,0.0799999999999983);
#49=VECTOR($,#149,0.0799999999999983);
#50=VECTOR($,#152,62.2);
#51=VECTOR($,#153,33.1);
#52=VECTOR($,#154,45.5);
#53=VECTOR($,#155,54.5);
#54=VECTOR($,#158,0.08);
#55=VECTOR($,#161,0.08);
#56=VECTOR($,#164,0.0799999999999983);
#57=VERTEX_POINT($,#169);
#58=VERTEX_POINT($,#170);
#59=VERTEX_POINT($,#172);
#60=VERTEX_POINT($,#174);
#61=VERTEX_POINT($,#176);
#62=VERTEX_POINT($,#180);
#63=VERTEX_POINT($,#181);
#64=VERTEX_POINT($,#186);
#65=VERTEX_POINT($,#187);
#66=VERTEX_POINT($,#190);
#67=EDGE_CURVE($,#57,#58,#27,.T.);
#68=EDGE_CURVE($,#57,#59,#28,.T.);
#69=EDGE_CURVE($,#59,#60,#29,.T.);
#70=EDGE_CURVE($,#60,#61,#30,.T.);
#71=EDGE_CURVE($,#58,#61,#31,.T.);
#72=EDGE_CURVE($,#62,#63,#32,.T.);
#73=EDGE_CURVE($,#58,#62,#33,.T.);
#74=EDGE_CURVE($,#61,#63,#34,.T.);
#75=EDGE_CURVE($,#64,#65,#35,.T.);
#76=EDGE_CURVE($,#65,#62,#36,.T.);
#77=EDGE_CURVE($,#63,#66,#37,.T.);
#78=EDGE_CURVE($,#64,#66,#38,.T.);
#79=EDGE_CURVE($,#60,#66,#39,.T.);
#80=EDGE_CURVE($,#59,#64,#40,.T.);
#81=EDGE_CURVE($,#57,#65,#41,.T.);
#82=ORIENTED_EDGE($,*,*,#67,.F.);
#83=ORIENTED_EDGE($,*,*,#68,.T.);
#84=ORIENTED_EDGE($,*,*,#69,.T.);
#85=ORIENTED_EDGE($,*,*,#70,.T.);
#86=ORIENTED_EDGE($,*,*,#71,.F.);
#87=ORIENTED_EDGE($,*,*,#72,.F.);
#88=ORIENTED_EDGE($,*,*,#73,.F.);
#89=ORIENTED_EDGE($,*,*,#71,.T.);
#90=ORIENTED_EDGE($,*,*,#74,.T.);
#91=ORIENTED_EDGE($,*,*,#75,.T.);
#92=ORIENTED_EDGE($,*,*,#76,.T.);
#93=ORIENTED_EDGE($,*,*,#72,.T.);
#94=ORIENTED_EDGE($,*,*,#77,.T.);
#95=ORIENTED_EDGE($,*,*,#78,.F.);
#96=ORIENTED_EDGE($,*,*,#77,.F.);
#97=ORIENTED_EDGE($,*,*,#74,.F.);
#98=ORIENTED_EDGE($,*,*,#70,.F.);
#99=ORIENTED_EDGE($,*,*,#79,.T.);
#100=ORIENTED_EDGE($,*,*,#78,.T.);
#101=ORIENTED_EDGE($,*,*,#79,.F.);
#102=ORIENTED_EDGE($,*,*,#69,.F.);
#103=ORIENTED_EDGE($,*,*,#80,.T.);
#104=ORIENTED_EDGE($,*,*,#75,.F.);
#105=ORIENTED_EDGE($,*,*,#80,.F.);
#106=ORIENTED_EDGE($,*,*,#68,.F.);
#107=ORIENTED_EDGE($,*,*,#81,.T.);
#108=ORIENTED_EDGE($,*,*,#76,.F.);
#109=ORIENTED_EDGE($,*,*,#81,.F.);
#110=ORIENTED_EDGE($,*,*,#67,.T.);
#111=ORIENTED_EDGE($,*,*,#73,.T.);
#112=PLANE($,#129);
#113=PLANE($,#130);
#114=PLANE($,#131);
#115=PLANE($,#132);
#116=PLANE($,#133);
#117=PLANE($,#134);
#118=PLANE($,#135);
#119=ADVANCED_FACE($,(#13),#112,.F.);
#120=ADVANCED_FACE($,(#14),#113,.T.);
#121=ADVANCED_FACE($,(#15),#114,.T.);
#122=ADVANCED_FACE($,(#16),#115,.T.);
#123=ADVANCED_FACE($,(#17),#116,.T.);
#124=ADVANCED_FACE($,(#18),#117,.T.);
#125=ADVANCED_FACE($,(#19),#118,.T.);
#126=CLOSED_SHELL($,(#119,#120,#121,#122,#123,#124,#125));
#127=MANIFOLD_SOLID_BREP('ASM Body',#126);
#128=AXIS2_PLACEMENT_3D('placement',#167,#136,#137);
#129=AXIS2_PLACEMENT_3D($,#168,#138,#139);
#130=AXIS2_PLACEMENT_3D($,#179,#145,#146);
#131=AXIS2_PLACEMENT_3D($,#185,#150,#151);
#132=AXIS2_PLACEMENT_3D($,#193,#156,#157);
#133=AXIS2_PLACEMENT_3D($,#195,#159,#160);
#134=AXIS2_PLACEMENT_3D($,#197,#162,#163);
#135=AXIS2_PLACEMENT_3D($,#199,#165,#166);
#136=DIRECTION('axis',(0.,0.,1.));
#137=DIRECTION('refdir',(1.,0.,0.));
#138=DIRECTION('center_axis',(0.,0.,1.));
#139=DIRECTION('ref_axis',(1.,0.,0.));
#140=DIRECTION($,(1.,0.,0.));
#141=DIRECTION($,(0.,1.,0.));
#142=DIRECTION($,(1.,0.,0.));
#143=DIRECTION($,(0.,-1.,0.));
#144=DIRECTION($,(0.788359362103505,0.615215016220959,0.));
#145=DIRECTION('center_axis',(0.615215016220959,-0.788359362103505,0.));
#146=DIRECTION('ref_axis',(0.788359362103505,0.615215016220959,0.));
#147=DIRECTION($,(0.788359362103505,0.615215016220959,0.));
#148=DIRECTION($,(0.,0.,1.));
#149=DIRECTION($,(0.,0.,1.));
#150=DIRECTION('center_axis',(0.,0.,1.));
#151=DIRECTION('ref_axis',(1.,0.,0.));
#152=DIRECTION($,(0.,-1.,0.));
#153=DIRECTION($,(1.,0.,0.));
#154=DIRECTION($,(0.,1.,0.));
#155=DIRECTION($,(1.,0.,0.));
#156=DIRECTION('center_axis',(1.,0.,0.));
#157=DIRECTION('ref_axis',(0.,1.,0.));
#158=DIRECTION($,(0.,0.,1.));
#159=DIRECTION('center_axis',(0.,1.,0.));
#160=DIRECTION('ref_axis',(-1.,0.,0.));
#161=DIRECTION($,(0.,0.,1.));
#162=DIRECTION('center_axis',(-1.,0.,0.));
#163=DIRECTION('ref_axis',(0.,-1.,0.));
#164=DIRECTION($,(0.,0.,1.));
#165=DIRECTION('center_axis',(0.,-1.,0.));
#166=DIRECTION('ref_axis',(1.,0.,0.));
#167=CARTESIAN_POINT('',(0.,0.,0.));
#168=CARTESIAN_POINT('Origin',(-27.25,31.1,0.));
#169=CARTESIAN_POINT('',(-54.5,0.,0.));
#170=CARTESIAN_POINT('',(-21.4,0.,0.));
#171=CARTESIAN_POINT($,(-54.5,0.,0.));
#172=CARTESIAN_POINT('',(-54.5,62.2,0.));
#173=CARTESIAN_POINT($,(-54.5,0.,0.));
#174=CARTESIAN_POINT('',(0.,62.2,0.));
#175=CARTESIAN_POINT($,(-54.5,62.2,0.));
#176=CARTESIAN_POINT('',(0.,16.7,0.));
#177=CARTESIAN_POINT($,(0.,62.2,0.));
#178=CARTESIAN_POINT($,(-21.4,0.,0.));
#179=CARTESIAN_POINT('Origin',(-21.4,0.,0.));
#180=CARTESIAN_POINT('',(-21.4,0.,0.0799999999999983));
#181=CARTESIAN_POINT('',(0.,16.7,0.0799999999999983));
#182=CARTESIAN_POINT($,(-15.6760046142363,4.46685621225487,0.0799999999999983));
#183=CARTESIAN_POINT($,(-21.4,0.,0.));
#184=CARTESIAN_POINT($,(0.,16.7,0.));
#185=CARTESIAN_POINT('Origin',(-27.25,31.1,0.08));
#186=CARTESIAN_POINT('',(-54.5,62.2,0.08));
#187=CARTESIAN_POINT('',(-54.5,0.,0.0799999999999983));
#188=CARTESIAN_POINT($,(-54.5,46.65,0.0799999999999983));
#189=CARTESIAN_POINT($,(-40.875,0.,0.0799999999999983));
#190=CARTESIAN_POINT('',(0.,62.2,0.08));
#191=CARTESIAN_POINT($,(0.,23.9,0.0799999999999983));
#192=CARTESIAN_POINT($,(-0.0399999991059303,62.2,0.08));
#193=CARTESIAN_POINT('Origin',(0.,16.7,0.));
#194=CARTESIAN_POINT($,(0.,62.2,0.));
#195=CARTESIAN_POINT('Origin',(0.,62.2,0.));
#196=CARTESIAN_POINT($,(-54.5,62.2,0.));
#197=CARTESIAN_POINT('Origin',(-54.5,62.2,0.));
#198=CARTESIAN_POINT($,(-54.5,0.,0.));
#199=CARTESIAN_POINT('Origin',(-54.5,0.,0.));
#200=UNCERTAINTY_MEASURE_WITH_UNIT(LENGTH_MEASURE(0.001),#202,
'DISTANCE_ACCURACY_VALUE',
'Maximum model space distance between geometric entities at asserted c
onnectivities');
#201=(
GEOMETRIC_REPRESENTATION_CONTEXT(3)
GLOBAL_UNCERTAINTY_ASSIGNED_CONTEXT((#200))
GLOBAL_UNIT_ASSIGNED_CONTEXT((#202,#204,#203))
REPRESENTATION_CONTEXT('','3D')
);
#202=(
LENGTH_UNIT()
NAMED_UNIT(*)
SI_UNIT(.CENTI.,.METRE.)
);
#203=(
NAMED_UNIT(*)
SI_UNIT($,.STERADIAN.)
SOLID_ANGLE_UNIT()
);
#204=(
NAMED_UNIT(*)
PLANE_ANGLE_UNIT()
SI_UNIT($,.RADIAN.)
);
#205=SHAPE_DEFINITION_REPRESENTATION(#206,#207);
#206=PRODUCT_DEFINITION_SHAPE('',$,#209);
#207=SHAPE_REPRESENTATION('',(#128),#201);
#208=PRODUCT_DEFINITION_CONTEXT('3D Mechanical Parts',#212,'design');
#209=PRODUCT_DEFINITION('(Unsaved)','(Unsaved)',#210,#208);
#210=PRODUCT_DEFINITION_FORMATION('',$,#214);
#211=APPLICATION_PROTOCOL_DEFINITION('international standard',
'automotive_design',2009,#212);
#212=APPLICATION_CONTEXT(
'Core Data for Automotive Mechanical Design Process');
#213=PRODUCT_CONTEXT('3D Mechanical Parts',#212,'mechanical');
#214=PRODUCT('(Unsaved)','(Unsaved)',$,(#213));
#215=PRESENTATION_STYLE_ASSIGNMENT((#216));
#216=SURFACE_STYLE_USAGE(.BOTH.,#217);
#217=SURFACE_SIDE_STYLE($,(#218));
#218=SURFACE_STYLE_FILL_AREA(#219);
#219=FILL_AREA_STYLE($,(#220));
#220=FILL_AREA_STYLE_COLOUR($,#221);
#221=COLOUR_RGB('__RGBA_0.322_0.702_0.937',0.32156862745098,0.701960784313725,
0.937254901960784);
ENDSEC;
END-ISO-10303-21;
