ISO-10303-21;
HEADER;
/* Generated by software containing ST-Developer
 * from STEP Tools, Inc. (www.steptools.com) 
 */

FILE_DESCRIPTION(
/* description */ (''),
/* implementation_level */ '2;1');

FILE_NAME(
/* name */ 'C:/Users/antoi/Downloads/cylinder schematic v3.step',
/* time_stamp */ '2022-09-22T11:56:20+02:00',
/* author */ (''),
/* organization */ (''),
/* preprocessor_version */ 'ST-DEVELOPER v19',
/* originating_system */ 'Autodesk Translation Framework v11.7.0.108',
/* authorisation */ '');

FILE_SCHEMA (('AUTOMOTIVE_DESIGN { 1 0 10303 214 3 1 1 }'));
ENDSEC;

DATA;
#10=MECHANICAL_DESIGN_GEOMETRIC_PRESENTATION_REPRESENTATION('',(#13),#221);
#11=SHAPE_REPRESENTATION_RELATIONSHIP('SRR','None',#228,#12);
#12=ADVANCED_BREP_SHAPE_REPRESENTATION('',(#14),#220);
#13=STYLED_ITEM('',(#237),#14);
#14=MANIFOLD_SOLID_BREP('Body2',#117);
#15=LINE('',#197,#19);
#16=LINE('',#204,#20);
#17=LINE('',#211,#21);
#18=LINE('',#217,#22);
#19=VECTOR('',#160,5.);
#20=VECTOR('',#169,4.);
#21=VECTOR('',#178,5.);
#22=VECTOR('',#187,1.);
#23=CYLINDRICAL_SURFACE('',#134,5.);
#24=CYLINDRICAL_SURFACE('',#138,4.);
#25=CYLINDRICAL_SURFACE('',#142,5.);
#26=CYLINDRICAL_SURFACE('',#147,1.);
#27=FACE_BOUND('',#40,.T.);
#28=FACE_BOUND('',#43,.T.);
#29=FACE_BOUND('',#46,.T.);
#30=FACE_OUTER_BOUND('',#39,.T.);
#31=FACE_OUTER_BOUND('',#41,.T.);
#32=FACE_OUTER_BOUND('',#42,.T.);
#33=FACE_OUTER_BOUND('',#44,.T.);
#34=FACE_OUTER_BOUND('',#45,.T.);
#35=FACE_OUTER_BOUND('',#47,.T.);
#36=FACE_OUTER_BOUND('',#48,.T.);
#37=FACE_OUTER_BOUND('',#49,.T.);
#38=FACE_OUTER_BOUND('',#50,.T.);
#39=EDGE_LOOP('',(#79));
#40=EDGE_LOOP('',(#80));
#41=EDGE_LOOP('',(#81,#82,#83,#84));
#42=EDGE_LOOP('',(#85));
#43=EDGE_LOOP('',(#86));
#44=EDGE_LOOP('',(#87,#88,#89,#90));
#45=EDGE_LOOP('',(#91));
#46=EDGE_LOOP('',(#92));
#47=EDGE_LOOP('',(#93,#94,#95,#96));
#48=EDGE_LOOP('',(#97));
#49=EDGE_LOOP('',(#98));
#50=EDGE_LOOP('',(#99,#100,#101,#102));
#51=CIRCLE('',#132,5.);
#52=CIRCLE('',#133,1.);
#53=CIRCLE('',#135,5.);
#54=CIRCLE('',#137,4.);
#55=CIRCLE('',#139,4.);
#56=CIRCLE('',#141,5.);
#57=CIRCLE('',#143,5.);
#58=CIRCLE('',#146,1.);
#59=VERTEX_POINT('',#190);
#60=VERTEX_POINT('',#192);
#61=VERTEX_POINT('',#195);
#62=VERTEX_POINT('',#199);
#63=VERTEX_POINT('',#202);
#64=VERTEX_POINT('',#206);
#65=VERTEX_POINT('',#209);
#66=VERTEX_POINT('',#214);
#67=EDGE_CURVE('',#59,#59,#51,.T.);
#68=EDGE_CURVE('',#60,#60,#52,.T.);
#69=EDGE_CURVE('',#61,#61,#53,.T.);
#70=EDGE_CURVE('',#61,#59,#15,.T.);
#71=EDGE_CURVE('',#62,#62,#54,.T.);
#72=EDGE_CURVE('',#63,#63,#55,.T.);
#73=EDGE_CURVE('',#63,#62,#16,.T.);
#74=EDGE_CURVE('',#64,#64,#56,.T.);
#75=EDGE_CURVE('',#65,#65,#57,.T.);
#76=EDGE_CURVE('',#65,#64,#17,.T.);
#77=EDGE_CURVE('',#66,#66,#58,.T.);
#78=EDGE_CURVE('',#66,#60,#18,.T.);
#79=ORIENTED_EDGE('',*,*,#67,.F.);
#80=ORIENTED_EDGE('',*,*,#68,.T.);
#81=ORIENTED_EDGE('',*,*,#69,.F.);
#82=ORIENTED_EDGE('',*,*,#70,.T.);
#83=ORIENTED_EDGE('',*,*,#67,.T.);
#84=ORIENTED_EDGE('',*,*,#70,.F.);
#85=ORIENTED_EDGE('',*,*,#69,.T.);
#86=ORIENTED_EDGE('',*,*,#71,.F.);
#87=ORIENTED_EDGE('',*,*,#72,.F.);
#88=ORIENTED_EDGE('',*,*,#73,.T.);
#89=ORIENTED_EDGE('',*,*,#71,.T.);
#90=ORIENTED_EDGE('',*,*,#73,.F.);
#91=ORIENTED_EDGE('',*,*,#74,.F.);
#92=ORIENTED_EDGE('',*,*,#72,.T.);
#93=ORIENTED_EDGE('',*,*,#75,.F.);
#94=ORIENTED_EDGE('',*,*,#76,.T.);
#95=ORIENTED_EDGE('',*,*,#74,.T.);
#96=ORIENTED_EDGE('',*,*,#76,.F.);
#97=ORIENTED_EDGE('',*,*,#75,.T.);
#98=ORIENTED_EDGE('',*,*,#77,.F.);
#99=ORIENTED_EDGE('',*,*,#77,.T.);
#100=ORIENTED_EDGE('',*,*,#78,.T.);
#101=ORIENTED_EDGE('',*,*,#68,.F.);
#102=ORIENTED_EDGE('',*,*,#78,.F.);
#103=PLANE('',#131);
#104=PLANE('',#136);
#105=PLANE('',#140);
#106=PLANE('',#144);
#107=PLANE('',#145);
#108=ADVANCED_FACE('',(#30,#27),#103,.T.);
#109=ADVANCED_FACE('',(#31),#23,.T.);
#110=ADVANCED_FACE('',(#32,#28),#104,.T.);
#111=ADVANCED_FACE('',(#33),#24,.T.);
#112=ADVANCED_FACE('',(#34,#29),#105,.T.);
#113=ADVANCED_FACE('',(#35),#25,.T.);
#114=ADVANCED_FACE('',(#36),#106,.T.);
#115=ADVANCED_FACE('',(#37),#107,.T.);
#116=ADVANCED_FACE('',(#38),#26,.F.);
#117=CLOSED_SHELL('',(#108,#109,#110,#111,#112,#113,#114,#115,#116));
#118=DERIVED_UNIT_ELEMENT(#120,1.);
#119=DERIVED_UNIT_ELEMENT(#223,-3.);
#120=(
MASS_UNIT()
NAMED_UNIT(*)
SI_UNIT(.KILO.,.GRAM.)
);
#121=DERIVED_UNIT((#118,#119));
#122=MEASURE_REPRESENTATION_ITEM('density measure',
POSITIVE_RATIO_MEASURE(7850.),#121);
#123=PROPERTY_DEFINITION_REPRESENTATION(#128,#125);
#124=PROPERTY_DEFINITION_REPRESENTATION(#129,#126);
#125=REPRESENTATION('material name',(#127),#220);
#126=REPRESENTATION('density',(#122),#220);
#127=DESCRIPTIVE_REPRESENTATION_ITEM('Steel','Steel');
#128=PROPERTY_DEFINITION('material property','material name',#230);
#129=PROPERTY_DEFINITION('material property','density of part',#230);
#130=AXIS2_PLACEMENT_3D('placement',#188,#148,#149);
#131=AXIS2_PLACEMENT_3D('',#189,#150,#151);
#132=AXIS2_PLACEMENT_3D('',#191,#152,#153);
#133=AXIS2_PLACEMENT_3D('',#193,#154,#155);
#134=AXIS2_PLACEMENT_3D('',#194,#156,#157);
#135=AXIS2_PLACEMENT_3D('',#196,#158,#159);
#136=AXIS2_PLACEMENT_3D('',#198,#161,#162);
#137=AXIS2_PLACEMENT_3D('',#200,#163,#164);
#138=AXIS2_PLACEMENT_3D('',#201,#165,#166);
#139=AXIS2_PLACEMENT_3D('',#203,#167,#168);
#140=AXIS2_PLACEMENT_3D('',#205,#170,#171);
#141=AXIS2_PLACEMENT_3D('',#207,#172,#173);
#142=AXIS2_PLACEMENT_3D('',#208,#174,#175);
#143=AXIS2_PLACEMENT_3D('',#210,#176,#177);
#144=AXIS2_PLACEMENT_3D('',#212,#179,#180);
#145=AXIS2_PLACEMENT_3D('',#213,#181,#182);
#146=AXIS2_PLACEMENT_3D('',#215,#183,#184);
#147=AXIS2_PLACEMENT_3D('',#216,#185,#186);
#148=DIRECTION('axis',(0.,0.,1.));
#149=DIRECTION('refdir',(1.,0.,0.));
#150=DIRECTION('center_axis',(0.,0.,1.));
#151=DIRECTION('ref_axis',(1.,0.,0.));
#152=DIRECTION('center_axis',(0.,0.,-1.));
#153=DIRECTION('ref_axis',(1.,0.,0.));
#154=DIRECTION('center_axis',(0.,0.,-1.));
#155=DIRECTION('ref_axis',(1.,0.,0.));
#156=DIRECTION('center_axis',(0.,0.,-1.));
#157=DIRECTION('ref_axis',(-1.,0.,0.));
#158=DIRECTION('center_axis',(0.,0.,-1.));
#159=DIRECTION('ref_axis',(1.,0.,0.));
#160=DIRECTION('',(0.,0.,1.));
#161=DIRECTION('center_axis',(0.,0.,-1.));
#162=DIRECTION('ref_axis',(-1.,0.,0.));
#163=DIRECTION('center_axis',(0.,0.,-1.));
#164=DIRECTION('ref_axis',(1.,0.,0.));
#165=DIRECTION('center_axis',(0.,0.,-1.));
#166=DIRECTION('ref_axis',(-1.,0.,0.));
#167=DIRECTION('center_axis',(0.,0.,-1.));
#168=DIRECTION('ref_axis',(1.,0.,0.));
#169=DIRECTION('',(0.,0.,1.));
#170=DIRECTION('center_axis',(0.,0.,1.));
#171=DIRECTION('ref_axis',(1.,0.,0.));
#172=DIRECTION('center_axis',(0.,0.,-1.));
#173=DIRECTION('ref_axis',(1.,0.,0.));
#174=DIRECTION('center_axis',(0.,0.,-1.));
#175=DIRECTION('ref_axis',(-1.,0.,0.));
#176=DIRECTION('center_axis',(0.,0.,-1.));
#177=DIRECTION('ref_axis',(1.,0.,0.));
#178=DIRECTION('',(0.,0.,1.));
#179=DIRECTION('center_axis',(0.,0.,-1.));
#180=DIRECTION('ref_axis',(-1.,0.,0.));
#181=DIRECTION('center_axis',(0.,0.,1.));
#182=DIRECTION('ref_axis',(1.,0.,0.));
#183=DIRECTION('center_axis',(0.,0.,-1.));
#184=DIRECTION('ref_axis',(1.,0.,0.));
#185=DIRECTION('center_axis',(0.,0.,-1.));
#186=DIRECTION('ref_axis',(-1.,0.,0.));
#187=DIRECTION('',(0.,0.,1.));
#188=CARTESIAN_POINT('',(0.,0.,0.));
#189=CARTESIAN_POINT('Origin',(-5.,0.,10.));
#190=CARTESIAN_POINT('',(5.,-6.12323399573677E-16,10.));
#191=CARTESIAN_POINT('Origin',(0.,0.,10.));
#192=CARTESIAN_POINT('',(1.,-1.22464679914735E-16,10.));
#193=CARTESIAN_POINT('Origin',(0.,0.,10.));
#194=CARTESIAN_POINT('Origin',(0.,0.,9.5));
#195=CARTESIAN_POINT('',(5.,-6.12323399573677E-16,9.));
#196=CARTESIAN_POINT('Origin',(0.,0.,9.));
#197=CARTESIAN_POINT('',(5.,-6.12323399573677E-16,9.5));
#198=CARTESIAN_POINT('Origin',(-4.,0.,9.));
#199=CARTESIAN_POINT('',(4.,-4.89858719658941E-16,9.));
#200=CARTESIAN_POINT('Origin',(0.,0.,9.));
#201=CARTESIAN_POINT('Origin',(0.,0.,5.));
#202=CARTESIAN_POINT('',(4.,-4.89858719658941E-16,1.));
#203=CARTESIAN_POINT('Origin',(0.,0.,1.));
#204=CARTESIAN_POINT('',(4.,-4.89858719658941E-16,5.));
#205=CARTESIAN_POINT('Origin',(-5.,0.,1.));
#206=CARTESIAN_POINT('',(5.,-6.12323399573677E-16,1.));
#207=CARTESIAN_POINT('Origin',(0.,0.,1.));
#208=CARTESIAN_POINT('Origin',(0.,0.,0.5));
#209=CARTESIAN_POINT('',(5.,-6.12323399573677E-16,0.));
#210=CARTESIAN_POINT('Origin',(0.,0.,0.));
#211=CARTESIAN_POINT('',(5.,-6.12323399573677E-16,0.5));
#212=CARTESIAN_POINT('Origin',(0.,0.,0.));
#213=CARTESIAN_POINT('Origin',(-1.,0.,8.));
#214=CARTESIAN_POINT('',(1.,-1.22464679914735E-16,8.));
#215=CARTESIAN_POINT('Origin',(0.,0.,8.));
#216=CARTESIAN_POINT('Origin',(0.,0.,9.));
#217=CARTESIAN_POINT('',(1.,-1.22464679914735E-16,9.));
#218=UNCERTAINTY_MEASURE_WITH_UNIT(LENGTH_MEASURE(0.01),#222,
'DISTANCE_ACCURACY_VALUE',
'Maximum model space distance between geometric entities at asserted c
onnectivities');
#219=UNCERTAINTY_MEASURE_WITH_UNIT(LENGTH_MEASURE(0.01),#222,
'DISTANCE_ACCURACY_VALUE',
'Maximum model space distance between geometric entities at asserted c
onnectivities');
#220=(
GEOMETRIC_REPRESENTATION_CONTEXT(3)
GLOBAL_UNCERTAINTY_ASSIGNED_CONTEXT((#218))
GLOBAL_UNIT_ASSIGNED_CONTEXT((#222,#224,#225))
REPRESENTATION_CONTEXT('','3D')
);
#221=(
GEOMETRIC_REPRESENTATION_CONTEXT(3)
GLOBAL_UNCERTAINTY_ASSIGNED_CONTEXT((#219))
GLOBAL_UNIT_ASSIGNED_CONTEXT((#222,#224,#225))
REPRESENTATION_CONTEXT('','3D')
);
#222=(
LENGTH_UNIT()
NAMED_UNIT(*)
SI_UNIT(.MILLI.,.METRE.)
);
#223=(
LENGTH_UNIT()
NAMED_UNIT(*)
SI_UNIT($,.METRE.)
);
#224=(
NAMED_UNIT(*)
PLANE_ANGLE_UNIT()
SI_UNIT($,.RADIAN.)
);
#225=(
NAMED_UNIT(*)
SI_UNIT($,.STERADIAN.)
SOLID_ANGLE_UNIT()
);
#226=SHAPE_DEFINITION_REPRESENTATION(#227,#228);
#227=PRODUCT_DEFINITION_SHAPE('',$,#230);
#228=SHAPE_REPRESENTATION('',(#130),#220);
#229=PRODUCT_DEFINITION_CONTEXT('part definition',#234,'design');
#230=PRODUCT_DEFINITION('cylinder schematic','cylinder schematic v3',#231,
#229);
#231=PRODUCT_DEFINITION_FORMATION('',$,#236);
#232=PRODUCT_RELATED_PRODUCT_CATEGORY('cylinder schematic v3',
'cylinder schematic v3',(#236));
#233=APPLICATION_PROTOCOL_DEFINITION('international standard',
'automotive_design',2009,#234);
#234=APPLICATION_CONTEXT(
'Core Data for Automotive Mechanical Design Process');
#235=PRODUCT_CONTEXT('part definition',#234,'mechanical');
#236=PRODUCT('cylinder schematic','cylinder schematic v3',$,(#235));
#237=PRESENTATION_STYLE_ASSIGNMENT((#238));
#238=SURFACE_STYLE_USAGE(.BOTH.,#239);
#239=SURFACE_SIDE_STYLE('',(#240));
#240=SURFACE_STYLE_FILL_AREA(#241);
#241=FILL_AREA_STYLE('Steel - Satin',(#242));
#242=FILL_AREA_STYLE_COLOUR('Steel - Satin',#243);
#243=COLOUR_RGB('Steel - Satin',0.627450980392157,0.627450980392157,0.627450980392157);
ENDSEC;
END-ISO-10303-21;
