ISO-10303-21;
HEADER;
/* Generated by software containing ST-Developer
 * from STEP Tools, Inc. (www.steptools.com) 
 */

FILE_DESCRIPTION(
/* description */ (''),
/* implementation_level */ '2;1');

FILE_NAME(
/* name */ 'C:/Users/ALLAN/Downloads/p-port male.step',
/* time_stamp */ '2022-10-15T18:23:04+02:00',
/* author */ (''),
/* organization */ (''),
/* preprocessor_version */ 'ST-DEVELOPER v19',
/* originating_system */ 'Autodesk Translation Framework v11.7.0.108',
/* authorisation */ '');

FILE_SCHEMA (('AUTOMOTIVE_DESIGN { 1 0 10303 214 3 1 1 }'));
ENDSEC;

DATA;
#10=MECHANICAL_DESIGN_GEOMETRIC_PRESENTATION_REPRESENTATION('',(#13),#505);
#11=SHAPE_REPRESENTATION_RELATIONSHIP('SRR','None',#512,#12);
#12=ADVANCED_BREP_SHAPE_REPRESENTATION('',(#14),#504);
#13=STYLED_ITEM('',(#521),#14);
#14=MANIFOLD_SOLID_BREP('Corps1',#276);
#15=CYLINDRICAL_SURFACE('',#299,16.5);
#16=CYLINDRICAL_SURFACE('',#304,18.1);
#17=CYLINDRICAL_SURFACE('',#310,12.5);
#18=CYLINDRICAL_SURFACE('',#313,14.5);
#19=CYLINDRICAL_SURFACE('',#314,16.5);
#20=CYLINDRICAL_SURFACE('',#318,18.);
#21=CYLINDRICAL_SURFACE('',#322,16.);
#22=CYLINDRICAL_SURFACE('',#326,18.);
#23=CYLINDRICAL_SURFACE('',#330,20.);
#24=LINE('',#439,#36);
#25=LINE('',#447,#37);
#26=LINE('',#456,#38);
#27=LINE('',#460,#39);
#28=LINE('',#465,#40);
#29=LINE('',#470,#41);
#30=LINE('',#474,#42);
#31=LINE('',#478,#43);
#32=LINE('',#482,#44);
#33=LINE('',#489,#45);
#34=LINE('',#496,#46);
#35=LINE('',#501,#47);
#36=VECTOR('',#345,16.);
#37=VECTOR('',#356,16.5);
#38=VECTOR('',#367,18.1);
#39=VECTOR('',#372,18.55);
#40=VECTOR('',#379,12.5);
#41=VECTOR('',#386,14.5);
#42=VECTOR('',#391,16.5);
#43=VECTOR('',#396,17.25);
#44=VECTOR('',#401,18.);
#45=VECTOR('',#410,16.);
#46=VECTOR('',#419,18.);
#47=VECTOR('',#426,20.);
#48=CONICAL_SURFACE('',#293,16.,0.785398163397448);
#49=CONICAL_SURFACE('',#306,18.55,0.42285392613294);
#50=CONICAL_SURFACE('',#316,17.25,0.785398163397448);
#51=FACE_BOUND('',#80,.T.);
#52=FACE_BOUND('',#83,.T.);
#53=FACE_BOUND('',#86,.T.);
#54=FACE_BOUND('',#90,.T.);
#55=FACE_BOUND('',#93,.T.);
#56=FACE_BOUND('',#99,.T.);
#57=FACE_BOUND('',#102,.T.);
#58=FACE_BOUND('',#105,.T.);
#59=FACE_OUTER_BOUND('',#79,.T.);
#60=FACE_OUTER_BOUND('',#81,.T.);
#61=FACE_OUTER_BOUND('',#82,.T.);
#62=FACE_OUTER_BOUND('',#84,.T.);
#63=FACE_OUTER_BOUND('',#85,.T.);
#64=FACE_OUTER_BOUND('',#87,.T.);
#65=FACE_OUTER_BOUND('',#88,.T.);
#66=FACE_OUTER_BOUND('',#89,.T.);
#67=FACE_OUTER_BOUND('',#91,.T.);
#68=FACE_OUTER_BOUND('',#92,.T.);
#69=FACE_OUTER_BOUND('',#94,.T.);
#70=FACE_OUTER_BOUND('',#95,.T.);
#71=FACE_OUTER_BOUND('',#96,.T.);
#72=FACE_OUTER_BOUND('',#97,.T.);
#73=FACE_OUTER_BOUND('',#98,.T.);
#74=FACE_OUTER_BOUND('',#100,.T.);
#75=FACE_OUTER_BOUND('',#101,.T.);
#76=FACE_OUTER_BOUND('',#103,.T.);
#77=FACE_OUTER_BOUND('',#104,.T.);
#78=FACE_OUTER_BOUND('',#106,.T.);
#79=EDGE_LOOP('',(#182));
#80=EDGE_LOOP('',(#183));
#81=EDGE_LOOP('',(#184,#185,#186,#187,#188));
#82=EDGE_LOOP('',(#189));
#83=EDGE_LOOP('',(#190));
#84=EDGE_LOOP('',(#191,#192,#193,#194,#195));
#85=EDGE_LOOP('',(#196));
#86=EDGE_LOOP('',(#197));
#87=EDGE_LOOP('',(#198,#199,#200,#201));
#88=EDGE_LOOP('',(#202,#203,#204,#205));
#89=EDGE_LOOP('',(#206));
#90=EDGE_LOOP('',(#207));
#91=EDGE_LOOP('',(#208,#209,#210,#211));
#92=EDGE_LOOP('',(#212));
#93=EDGE_LOOP('',(#213));
#94=EDGE_LOOP('',(#214,#215,#216,#217));
#95=EDGE_LOOP('',(#218,#219,#220,#221));
#96=EDGE_LOOP('',(#222,#223,#224,#225));
#97=EDGE_LOOP('',(#226,#227,#228,#229));
#98=EDGE_LOOP('',(#230));
#99=EDGE_LOOP('',(#231));
#100=EDGE_LOOP('',(#232,#233,#234,#235));
#101=EDGE_LOOP('',(#236));
#102=EDGE_LOOP('',(#237));
#103=EDGE_LOOP('',(#238,#239,#240,#241));
#104=EDGE_LOOP('',(#242));
#105=EDGE_LOOP('',(#243));
#106=EDGE_LOOP('',(#244,#245,#246,#247));
#107=CIRCLE('',#291,16.5);
#108=CIRCLE('',#292,14.4999996758997);
#109=CIRCLE('',#294,16.5);
#110=CIRCLE('',#295,16.5);
#111=CIRCLE('',#296,15.5);
#112=CIRCLE('',#298,12.5);
#113=CIRCLE('',#300,16.5);
#114=CIRCLE('',#302,20.);
#115=CIRCLE('',#303,18.1);
#116=CIRCLE('',#305,18.1);
#117=CIRCLE('',#307,19.);
#118=CIRCLE('',#309,12.5);
#119=CIRCLE('',#312,14.5);
#120=CIRCLE('',#315,16.5);
#121=CIRCLE('',#317,18.);
#122=CIRCLE('',#319,18.);
#123=CIRCLE('',#321,16.);
#124=CIRCLE('',#323,16.);
#125=CIRCLE('',#325,18.);
#126=CIRCLE('',#327,18.);
#127=CIRCLE('',#329,20.);
#128=VERTEX_POINT('',#429);
#129=VERTEX_POINT('',#431);
#130=VERTEX_POINT('',#434);
#131=VERTEX_POINT('',#435);
#132=VERTEX_POINT('',#438);
#133=VERTEX_POINT('',#442);
#134=VERTEX_POINT('',#445);
#135=VERTEX_POINT('',#449);
#136=VERTEX_POINT('',#451);
#137=VERTEX_POINT('',#454);
#138=VERTEX_POINT('',#458);
#139=VERTEX_POINT('',#462);
#140=VERTEX_POINT('',#467);
#141=VERTEX_POINT('',#472);
#142=VERTEX_POINT('',#476);
#143=VERTEX_POINT('',#480);
#144=VERTEX_POINT('',#484);
#145=VERTEX_POINT('',#487);
#146=VERTEX_POINT('',#491);
#147=VERTEX_POINT('',#494);
#148=VERTEX_POINT('',#498);
#149=EDGE_CURVE('',#128,#128,#107,.T.);
#150=EDGE_CURVE('',#129,#129,#108,.T.);
#151=EDGE_CURVE('',#130,#131,#109,.T.);
#152=EDGE_CURVE('',#131,#130,#110,.T.);
#153=EDGE_CURVE('',#130,#132,#24,.T.);
#154=EDGE_CURVE('',#132,#132,#111,.T.);
#155=EDGE_CURVE('',#133,#133,#112,.T.);
#156=EDGE_CURVE('',#134,#134,#113,.T.);
#157=EDGE_CURVE('',#134,#131,#25,.T.);
#158=EDGE_CURVE('',#135,#135,#114,.T.);
#159=EDGE_CURVE('',#136,#136,#115,.T.);
#160=EDGE_CURVE('',#137,#137,#116,.T.);
#161=EDGE_CURVE('',#137,#136,#26,.T.);
#162=EDGE_CURVE('',#138,#138,#117,.T.);
#163=EDGE_CURVE('',#138,#137,#27,.T.);
#164=EDGE_CURVE('',#139,#139,#118,.T.);
#165=EDGE_CURVE('',#139,#133,#28,.T.);
#166=EDGE_CURVE('',#140,#140,#119,.T.);
#167=EDGE_CURVE('',#129,#140,#29,.T.);
#168=EDGE_CURVE('',#141,#141,#120,.T.);
#169=EDGE_CURVE('',#141,#128,#30,.T.);
#170=EDGE_CURVE('',#142,#142,#121,.T.);
#171=EDGE_CURVE('',#142,#141,#31,.T.);
#172=EDGE_CURVE('',#143,#143,#122,.T.);
#173=EDGE_CURVE('',#143,#142,#32,.T.);
#174=EDGE_CURVE('',#144,#144,#123,.T.);
#175=EDGE_CURVE('',#145,#145,#124,.T.);
#176=EDGE_CURVE('',#145,#144,#33,.T.);
#177=EDGE_CURVE('',#146,#146,#125,.T.);
#178=EDGE_CURVE('',#147,#147,#126,.T.);
#179=EDGE_CURVE('',#147,#146,#34,.T.);
#180=EDGE_CURVE('',#148,#148,#127,.T.);
#181=EDGE_CURVE('',#135,#148,#35,.T.);
#182=ORIENTED_EDGE('',*,*,#149,.F.);
#183=ORIENTED_EDGE('',*,*,#150,.T.);
#184=ORIENTED_EDGE('',*,*,#151,.T.);
#185=ORIENTED_EDGE('',*,*,#152,.T.);
#186=ORIENTED_EDGE('',*,*,#153,.T.);
#187=ORIENTED_EDGE('',*,*,#154,.T.);
#188=ORIENTED_EDGE('',*,*,#153,.F.);
#189=ORIENTED_EDGE('',*,*,#154,.F.);
#190=ORIENTED_EDGE('',*,*,#155,.T.);
#191=ORIENTED_EDGE('',*,*,#156,.F.);
#192=ORIENTED_EDGE('',*,*,#157,.T.);
#193=ORIENTED_EDGE('',*,*,#151,.F.);
#194=ORIENTED_EDGE('',*,*,#152,.F.);
#195=ORIENTED_EDGE('',*,*,#157,.F.);
#196=ORIENTED_EDGE('',*,*,#158,.T.);
#197=ORIENTED_EDGE('',*,*,#159,.F.);
#198=ORIENTED_EDGE('',*,*,#160,.F.);
#199=ORIENTED_EDGE('',*,*,#161,.T.);
#200=ORIENTED_EDGE('',*,*,#159,.T.);
#201=ORIENTED_EDGE('',*,*,#161,.F.);
#202=ORIENTED_EDGE('',*,*,#162,.F.);
#203=ORIENTED_EDGE('',*,*,#163,.T.);
#204=ORIENTED_EDGE('',*,*,#160,.T.);
#205=ORIENTED_EDGE('',*,*,#163,.F.);
#206=ORIENTED_EDGE('',*,*,#162,.T.);
#207=ORIENTED_EDGE('',*,*,#164,.F.);
#208=ORIENTED_EDGE('',*,*,#164,.T.);
#209=ORIENTED_EDGE('',*,*,#165,.T.);
#210=ORIENTED_EDGE('',*,*,#155,.F.);
#211=ORIENTED_EDGE('',*,*,#165,.F.);
#212=ORIENTED_EDGE('',*,*,#156,.T.);
#213=ORIENTED_EDGE('',*,*,#166,.F.);
#214=ORIENTED_EDGE('',*,*,#150,.F.);
#215=ORIENTED_EDGE('',*,*,#167,.T.);
#216=ORIENTED_EDGE('',*,*,#166,.T.);
#217=ORIENTED_EDGE('',*,*,#167,.F.);
#218=ORIENTED_EDGE('',*,*,#168,.F.);
#219=ORIENTED_EDGE('',*,*,#169,.T.);
#220=ORIENTED_EDGE('',*,*,#149,.T.);
#221=ORIENTED_EDGE('',*,*,#169,.F.);
#222=ORIENTED_EDGE('',*,*,#170,.F.);
#223=ORIENTED_EDGE('',*,*,#171,.T.);
#224=ORIENTED_EDGE('',*,*,#168,.T.);
#225=ORIENTED_EDGE('',*,*,#171,.F.);
#226=ORIENTED_EDGE('',*,*,#172,.F.);
#227=ORIENTED_EDGE('',*,*,#173,.T.);
#228=ORIENTED_EDGE('',*,*,#170,.T.);
#229=ORIENTED_EDGE('',*,*,#173,.F.);
#230=ORIENTED_EDGE('',*,*,#172,.T.);
#231=ORIENTED_EDGE('',*,*,#174,.F.);
#232=ORIENTED_EDGE('',*,*,#175,.F.);
#233=ORIENTED_EDGE('',*,*,#176,.T.);
#234=ORIENTED_EDGE('',*,*,#174,.T.);
#235=ORIENTED_EDGE('',*,*,#176,.F.);
#236=ORIENTED_EDGE('',*,*,#177,.F.);
#237=ORIENTED_EDGE('',*,*,#175,.T.);
#238=ORIENTED_EDGE('',*,*,#178,.F.);
#239=ORIENTED_EDGE('',*,*,#179,.T.);
#240=ORIENTED_EDGE('',*,*,#177,.T.);
#241=ORIENTED_EDGE('',*,*,#179,.F.);
#242=ORIENTED_EDGE('',*,*,#180,.F.);
#243=ORIENTED_EDGE('',*,*,#178,.T.);
#244=ORIENTED_EDGE('',*,*,#158,.F.);
#245=ORIENTED_EDGE('',*,*,#181,.T.);
#246=ORIENTED_EDGE('',*,*,#180,.T.);
#247=ORIENTED_EDGE('',*,*,#181,.F.);
#248=PLANE('',#290);
#249=PLANE('',#297);
#250=PLANE('',#301);
#251=PLANE('',#308);
#252=PLANE('',#311);
#253=PLANE('',#320);
#254=PLANE('',#324);
#255=PLANE('',#328);
#256=ADVANCED_FACE('',(#59,#51),#248,.F.);
#257=ADVANCED_FACE('',(#60),#48,.T.);
#258=ADVANCED_FACE('',(#61,#52),#249,.T.);
#259=ADVANCED_FACE('',(#62),#15,.T.);
#260=ADVANCED_FACE('',(#63,#53),#250,.T.);
#261=ADVANCED_FACE('',(#64),#16,.T.);
#262=ADVANCED_FACE('',(#65),#49,.T.);
#263=ADVANCED_FACE('',(#66,#54),#251,.T.);
#264=ADVANCED_FACE('',(#67),#17,.F.);
#265=ADVANCED_FACE('',(#68,#55),#252,.T.);
#266=ADVANCED_FACE('',(#69),#18,.T.);
#267=ADVANCED_FACE('',(#70),#19,.T.);
#268=ADVANCED_FACE('',(#71),#50,.T.);
#269=ADVANCED_FACE('',(#72),#20,.T.);
#270=ADVANCED_FACE('',(#73,#56),#253,.T.);
#271=ADVANCED_FACE('',(#74),#21,.T.);
#272=ADVANCED_FACE('',(#75,#57),#254,.T.);
#273=ADVANCED_FACE('',(#76),#22,.T.);
#274=ADVANCED_FACE('',(#77,#58),#255,.T.);
#275=ADVANCED_FACE('',(#78),#23,.T.);
#276=CLOSED_SHELL('',(#256,#257,#258,#259,#260,#261,#262,#263,#264,#265,
#266,#267,#268,#269,#270,#271,#272,#273,#274,#275));
#277=DERIVED_UNIT_ELEMENT(#279,1.);
#278=DERIVED_UNIT_ELEMENT(#507,-3.);
#279=(
MASS_UNIT()
NAMED_UNIT(*)
SI_UNIT(.KILO.,.GRAM.)
);
#280=DERIVED_UNIT((#277,#278));
#281=MEASURE_REPRESENTATION_ITEM('density measure',
POSITIVE_RATIO_MEASURE(7850.),#280);
#282=PROPERTY_DEFINITION_REPRESENTATION(#287,#284);
#283=PROPERTY_DEFINITION_REPRESENTATION(#288,#285);
#284=REPRESENTATION('material name',(#286),#504);
#285=REPRESENTATION('density',(#281),#504);
#286=DESCRIPTIVE_REPRESENTATION_ITEM('Acier','Acier');
#287=PROPERTY_DEFINITION('material property','material name',#514);
#288=PROPERTY_DEFINITION('material property','density of part',#514);
#289=AXIS2_PLACEMENT_3D('placement',#427,#331,#332);
#290=AXIS2_PLACEMENT_3D('',#428,#333,#334);
#291=AXIS2_PLACEMENT_3D('',#430,#335,#336);
#292=AXIS2_PLACEMENT_3D('',#432,#337,#338);
#293=AXIS2_PLACEMENT_3D('',#433,#339,#340);
#294=AXIS2_PLACEMENT_3D('',#436,#341,#342);
#295=AXIS2_PLACEMENT_3D('',#437,#343,#344);
#296=AXIS2_PLACEMENT_3D('',#440,#346,#347);
#297=AXIS2_PLACEMENT_3D('',#441,#348,#349);
#298=AXIS2_PLACEMENT_3D('',#443,#350,#351);
#299=AXIS2_PLACEMENT_3D('',#444,#352,#353);
#300=AXIS2_PLACEMENT_3D('',#446,#354,#355);
#301=AXIS2_PLACEMENT_3D('',#448,#357,#358);
#302=AXIS2_PLACEMENT_3D('',#450,#359,#360);
#303=AXIS2_PLACEMENT_3D('',#452,#361,#362);
#304=AXIS2_PLACEMENT_3D('',#453,#363,#364);
#305=AXIS2_PLACEMENT_3D('',#455,#365,#366);
#306=AXIS2_PLACEMENT_3D('',#457,#368,#369);
#307=AXIS2_PLACEMENT_3D('',#459,#370,#371);
#308=AXIS2_PLACEMENT_3D('',#461,#373,#374);
#309=AXIS2_PLACEMENT_3D('',#463,#375,#376);
#310=AXIS2_PLACEMENT_3D('',#464,#377,#378);
#311=AXIS2_PLACEMENT_3D('',#466,#380,#381);
#312=AXIS2_PLACEMENT_3D('',#468,#382,#383);
#313=AXIS2_PLACEMENT_3D('',#469,#384,#385);
#314=AXIS2_PLACEMENT_3D('',#471,#387,#388);
#315=AXIS2_PLACEMENT_3D('',#473,#389,#390);
#316=AXIS2_PLACEMENT_3D('',#475,#392,#393);
#317=AXIS2_PLACEMENT_3D('',#477,#394,#395);
#318=AXIS2_PLACEMENT_3D('',#479,#397,#398);
#319=AXIS2_PLACEMENT_3D('',#481,#399,#400);
#320=AXIS2_PLACEMENT_3D('',#483,#402,#403);
#321=AXIS2_PLACEMENT_3D('',#485,#404,#405);
#322=AXIS2_PLACEMENT_3D('',#486,#406,#407);
#323=AXIS2_PLACEMENT_3D('',#488,#408,#409);
#324=AXIS2_PLACEMENT_3D('',#490,#411,#412);
#325=AXIS2_PLACEMENT_3D('',#492,#413,#414);
#326=AXIS2_PLACEMENT_3D('',#493,#415,#416);
#327=AXIS2_PLACEMENT_3D('',#495,#417,#418);
#328=AXIS2_PLACEMENT_3D('',#497,#420,#421);
#329=AXIS2_PLACEMENT_3D('',#499,#422,#423);
#330=AXIS2_PLACEMENT_3D('',#500,#424,#425);
#331=DIRECTION('axis',(0.,0.,1.));
#332=DIRECTION('refdir',(1.,0.,0.));
#333=DIRECTION('center_axis',(-1.,1.7764244415028E-32,-4.97879115238914E-94));
#334=DIRECTION('ref_axis',(-4.97879115238914E-94,0.,1.));
#335=DIRECTION('center_axis',(-1.,1.7764244415028E-32,-4.97879115238914E-94));
#336=DIRECTION('ref_axis',(0.,0.,1.));
#337=DIRECTION('center_axis',(-1.,1.7764244415028E-32,-4.97879115238914E-94));
#338=DIRECTION('ref_axis',(-4.97879115238914E-94,0.,1.));
#339=DIRECTION('center_axis',(-1.,0.,0.));
#340=DIRECTION('ref_axis',(0.,0.,-1.));
#341=DIRECTION('center_axis',(1.,0.,0.));
#342=DIRECTION('ref_axis',(0.,0.,-1.));
#343=DIRECTION('center_axis',(1.,0.,0.));
#344=DIRECTION('ref_axis',(0.,0.,-1.));
#345=DIRECTION('',(0.707106781186548,-8.65956056235493E-17,-0.707106781186548));
#346=DIRECTION('center_axis',(-1.,0.,0.));
#347=DIRECTION('ref_axis',(0.,0.,-1.));
#348=DIRECTION('center_axis',(1.,0.,0.));
#349=DIRECTION('ref_axis',(0.,0.,-1.));
#350=DIRECTION('center_axis',(-1.,0.,0.));
#351=DIRECTION('ref_axis',(0.,0.,1.));
#352=DIRECTION('center_axis',(-1.,0.,0.));
#353=DIRECTION('ref_axis',(0.,0.,1.));
#354=DIRECTION('center_axis',(-1.,0.,0.));
#355=DIRECTION('ref_axis',(0.,0.,1.));
#356=DIRECTION('',(1.,0.,0.));
#357=DIRECTION('center_axis',(-1.,0.,0.));
#358=DIRECTION('ref_axis',(0.,0.,1.));
#359=DIRECTION('center_axis',(-1.,0.,0.));
#360=DIRECTION('ref_axis',(0.,0.,1.));
#361=DIRECTION('center_axis',(-1.,0.,0.));
#362=DIRECTION('ref_axis',(0.,0.,1.));
#363=DIRECTION('center_axis',(-1.,0.,0.));
#364=DIRECTION('ref_axis',(0.,0.,1.));
#365=DIRECTION('center_axis',(-1.,0.,0.));
#366=DIRECTION('ref_axis',(0.,0.,1.));
#367=DIRECTION('',(1.,0.,0.));
#368=DIRECTION('center_axis',(-1.,0.,0.));
#369=DIRECTION('ref_axis',(0.,0.,1.));
#370=DIRECTION('center_axis',(-1.,0.,0.));
#371=DIRECTION('ref_axis',(0.,0.,1.));
#372=DIRECTION('',(0.911921505175107,5.02551788573848E-17,0.410364677328797));
#373=DIRECTION('center_axis',(-1.,0.,0.));
#374=DIRECTION('ref_axis',(0.,0.,1.));
#375=DIRECTION('center_axis',(-1.,0.,0.));
#376=DIRECTION('ref_axis',(0.,0.,1.));
#377=DIRECTION('center_axis',(-1.,0.,0.));
#378=DIRECTION('ref_axis',(0.,0.,1.));
#379=DIRECTION('',(1.,0.,0.));
#380=DIRECTION('center_axis',(-1.,0.,0.));
#381=DIRECTION('ref_axis',(0.,0.,1.));
#382=DIRECTION('center_axis',(-1.,0.,0.));
#383=DIRECTION('ref_axis',(0.,0.,1.));
#384=DIRECTION('center_axis',(-1.,0.,0.));
#385=DIRECTION('ref_axis',(0.,0.,1.));
#386=DIRECTION('',(1.,0.,0.));
#387=DIRECTION('center_axis',(-1.,0.,0.));
#388=DIRECTION('ref_axis',(0.,0.,1.));
#389=DIRECTION('center_axis',(-1.,0.,0.));
#390=DIRECTION('ref_axis',(0.,0.,1.));
#391=DIRECTION('',(1.,0.,0.));
#392=DIRECTION('center_axis',(-1.,0.,0.));
#393=DIRECTION('ref_axis',(0.,0.,1.));
#394=DIRECTION('center_axis',(-1.,0.,0.));
#395=DIRECTION('ref_axis',(0.,0.,1.));
#396=DIRECTION('',(0.707106781186547,8.65956056235493E-17,0.707106781186548));
#397=DIRECTION('center_axis',(-1.,0.,0.));
#398=DIRECTION('ref_axis',(0.,0.,1.));
#399=DIRECTION('center_axis',(-1.,0.,0.));
#400=DIRECTION('ref_axis',(0.,0.,1.));
#401=DIRECTION('',(1.,0.,0.));
#402=DIRECTION('center_axis',(-1.,0.,0.));
#403=DIRECTION('ref_axis',(0.,0.,1.));
#404=DIRECTION('center_axis',(-1.,0.,0.));
#405=DIRECTION('ref_axis',(0.,0.,1.));
#406=DIRECTION('center_axis',(-1.,0.,0.));
#407=DIRECTION('ref_axis',(0.,0.,1.));
#408=DIRECTION('center_axis',(-1.,0.,0.));
#409=DIRECTION('ref_axis',(0.,0.,1.));
#410=DIRECTION('',(1.,0.,0.));
#411=DIRECTION('center_axis',(1.,0.,0.));
#412=DIRECTION('ref_axis',(0.,0.,-1.));
#413=DIRECTION('center_axis',(-1.,0.,0.));
#414=DIRECTION('ref_axis',(0.,0.,1.));
#415=DIRECTION('center_axis',(-1.,0.,0.));
#416=DIRECTION('ref_axis',(0.,0.,1.));
#417=DIRECTION('center_axis',(-1.,0.,0.));
#418=DIRECTION('ref_axis',(0.,0.,1.));
#419=DIRECTION('',(1.,0.,0.));
#420=DIRECTION('center_axis',(1.,0.,0.));
#421=DIRECTION('ref_axis',(0.,0.,-1.));
#422=DIRECTION('center_axis',(-1.,0.,0.));
#423=DIRECTION('ref_axis',(0.,0.,1.));
#424=DIRECTION('center_axis',(-1.,0.,0.));
#425=DIRECTION('ref_axis',(0.,0.,1.));
#426=DIRECTION('',(1.,0.,0.));
#427=CARTESIAN_POINT('',(0.,0.,0.));
#428=CARTESIAN_POINT('Origin',(17.9999995306134,-3.19756391132207E-31,14.4999996758997));
#429=CARTESIAN_POINT('',(17.9999995306134,-2.02066721859313E-15,-16.5));
#430=CARTESIAN_POINT('Origin',(17.9999995306134,0.,0.));
#431=CARTESIAN_POINT('',(17.9999995306134,-1.77573785876366E-15,-14.5));
#432=CARTESIAN_POINT('Origin',(17.9999995306134,-3.19756391132207E-31,8.96182384060269E-93));
#433=CARTESIAN_POINT('Origin',(25.5,0.,0.));
#434=CARTESIAN_POINT('',(25.,-2.02066721859313E-15,16.5));
#435=CARTESIAN_POINT('',(25.,-2.02066721859313E-15,-16.5));
#436=CARTESIAN_POINT('Origin',(25.,0.,0.));
#437=CARTESIAN_POINT('Origin',(25.,0.,0.));
#438=CARTESIAN_POINT('',(26.,1.8982025386784E-15,15.5));
#439=CARTESIAN_POINT('',(25.5,1.95943487863577E-15,16.));
#440=CARTESIAN_POINT('Origin',(26.,0.,0.));
#441=CARTESIAN_POINT('Origin',(26.,0.,16.5));
#442=CARTESIAN_POINT('',(26.,-1.53080849893419E-15,-12.5));
#443=CARTESIAN_POINT('Origin',(26.,0.,0.));
#444=CARTESIAN_POINT('Origin',(23.5,0.,0.));
#445=CARTESIAN_POINT('',(21.,-2.02066721859313E-15,-16.5));
#446=CARTESIAN_POINT('Origin',(21.,0.,0.));
#447=CARTESIAN_POINT('',(23.5,-2.02066721859313E-15,-16.5));
#448=CARTESIAN_POINT('Origin',(-4.30000000000004,0.,18.1));
#449=CARTESIAN_POINT('',(-4.30000000000004,-2.44929359829471E-15,-20.));
#450=CARTESIAN_POINT('Origin',(-4.30000000000004,0.,0.));
#451=CARTESIAN_POINT('',(-4.30000000000004,-2.21661070645671E-15,-18.1));
#452=CARTESIAN_POINT('Origin',(-4.30000000000004,0.,0.));
#453=CARTESIAN_POINT('Origin',(-15.8,0.,0.));
#454=CARTESIAN_POINT('',(-27.3,-2.21661070645671E-15,-18.1));
#455=CARTESIAN_POINT('Origin',(-27.3,0.,0.));
#456=CARTESIAN_POINT('',(-15.8,-2.21661070645671E-15,-18.1));
#457=CARTESIAN_POINT('Origin',(-28.3,0.,0.));
#458=CARTESIAN_POINT('',(-29.3,-2.32682891837997E-15,-19.));
#459=CARTESIAN_POINT('Origin',(-29.3,0.,0.));
#460=CARTESIAN_POINT('',(-28.3,-2.27171981241834E-15,-18.55));
#461=CARTESIAN_POINT('Origin',(-29.3,0.,12.5));
#462=CARTESIAN_POINT('',(-29.3,-1.53080849893419E-15,-12.5));
#463=CARTESIAN_POINT('Origin',(-29.3,0.,0.));
#464=CARTESIAN_POINT('Origin',(-1.65000000000004,0.,0.));
#465=CARTESIAN_POINT('',(-1.65000000000004,-1.53080849893419E-15,-12.5));
#466=CARTESIAN_POINT('Origin',(21.,0.,14.5));
#467=CARTESIAN_POINT('',(21.,-1.77573785876366E-15,-14.5));
#468=CARTESIAN_POINT('Origin',(21.,0.,0.));
#469=CARTESIAN_POINT('Origin',(19.6,0.,0.));
#470=CARTESIAN_POINT('',(19.6,-1.77573785876366E-15,-14.5));
#471=CARTESIAN_POINT('Origin',(15.85,0.,0.));
#472=CARTESIAN_POINT('',(13.5,-2.02066721859313E-15,-16.5));
#473=CARTESIAN_POINT('Origin',(13.5,0.,0.));
#474=CARTESIAN_POINT('',(15.85,-2.02066721859313E-15,-16.5));
#475=CARTESIAN_POINT('Origin',(12.75,0.,0.));
#476=CARTESIAN_POINT('',(12.,-2.20436423846524E-15,-18.));
#477=CARTESIAN_POINT('Origin',(12.,0.,0.));
#478=CARTESIAN_POINT('',(12.75,-2.11251572852918E-15,-17.25));
#479=CARTESIAN_POINT('Origin',(9.59999999999996,0.,0.));
#480=CARTESIAN_POINT('',(7.19999999999996,-2.20436423846524E-15,-18.));
#481=CARTESIAN_POINT('Origin',(7.19999999999996,0.,0.));
#482=CARTESIAN_POINT('',(9.59999999999996,-2.20436423846524E-15,-18.));
#483=CARTESIAN_POINT('Origin',(7.19999999999996,0.,16.));
#484=CARTESIAN_POINT('',(7.19999999999996,-1.95943487863577E-15,-16.));
#485=CARTESIAN_POINT('Origin',(7.19999999999996,0.,0.));
#486=CARTESIAN_POINT('Origin',(6.19999999999996,0.,0.));
#487=CARTESIAN_POINT('',(5.19999999999996,-1.95943487863577E-15,-16.));
#488=CARTESIAN_POINT('Origin',(5.19999999999996,0.,0.));
#489=CARTESIAN_POINT('',(6.19999999999996,-1.95943487863577E-15,-16.));
#490=CARTESIAN_POINT('Origin',(5.19999999999996,0.,18.));
#491=CARTESIAN_POINT('',(5.19999999999996,-2.20436423846524E-15,-18.));
#492=CARTESIAN_POINT('Origin',(5.19999999999996,0.,0.));
#493=CARTESIAN_POINT('Origin',(2.59999999999996,0.,0.));
#494=CARTESIAN_POINT('',(-3.5527136788005E-14,-2.20436423846524E-15,-18.));
#495=CARTESIAN_POINT('Origin',(-3.52495810318487E-14,0.,0.));
#496=CARTESIAN_POINT('',(2.59999999999996,-2.20436423846524E-15,-18.));
#497=CARTESIAN_POINT('Origin',(-3.77475828372553E-14,0.,20.));
#498=CARTESIAN_POINT('',(-3.77475828372553E-14,-2.44929359829471E-15,-20.));
#499=CARTESIAN_POINT('Origin',(-3.77475828372553E-14,0.,0.));
#500=CARTESIAN_POINT('Origin',(-2.15000000000004,0.,0.));
#501=CARTESIAN_POINT('',(-2.15000000000004,-2.44929359829471E-15,-20.));
#502=UNCERTAINTY_MEASURE_WITH_UNIT(LENGTH_MEASURE(0.01),#506,
'DISTANCE_ACCURACY_VALUE',
'Maximum model space distance between geometric entities at asserted c
onnectivities');
#503=UNCERTAINTY_MEASURE_WITH_UNIT(LENGTH_MEASURE(0.01),#506,
'DISTANCE_ACCURACY_VALUE',
'Maximum model space distance between geometric entities at asserted c
onnectivities');
#504=(
GEOMETRIC_REPRESENTATION_CONTEXT(3)
GLOBAL_UNCERTAINTY_ASSIGNED_CONTEXT((#502))
GLOBAL_UNIT_ASSIGNED_CONTEXT((#506,#508,#509))
REPRESENTATION_CONTEXT('','3D')
);
#505=(
GEOMETRIC_REPRESENTATION_CONTEXT(3)
GLOBAL_UNCERTAINTY_ASSIGNED_CONTEXT((#503))
GLOBAL_UNIT_ASSIGNED_CONTEXT((#506,#508,#509))
REPRESENTATION_CONTEXT('','3D')
);
#506=(
LENGTH_UNIT()
NAMED_UNIT(*)
SI_UNIT(.MILLI.,.METRE.)
);
#507=(
LENGTH_UNIT()
NAMED_UNIT(*)
SI_UNIT($,.METRE.)
);
#508=(
NAMED_UNIT(*)
PLANE_ANGLE_UNIT()
SI_UNIT($,.RADIAN.)
);
#509=(
NAMED_UNIT(*)
SI_UNIT($,.STERADIAN.)
SOLID_ANGLE_UNIT()
);
#510=SHAPE_DEFINITION_REPRESENTATION(#511,#512);
#511=PRODUCT_DEFINITION_SHAPE('',$,#514);
#512=SHAPE_REPRESENTATION('',(#289),#504);
#513=PRODUCT_DEFINITION_CONTEXT('part definition',#518,'design');
#514=PRODUCT_DEFINITION('p-port male','p-port male',#515,#513);
#515=PRODUCT_DEFINITION_FORMATION('',$,#520);
#516=PRODUCT_RELATED_PRODUCT_CATEGORY('p-port male','p-port male',(#520));
#517=APPLICATION_PROTOCOL_DEFINITION('international standard',
'automotive_design',2009,#518);
#518=APPLICATION_CONTEXT(
'Core Data for Automotive Mechanical Design Process');
#519=PRODUCT_CONTEXT('part definition',#518,'mechanical');
#520=PRODUCT('p-port male','p-port male',$,(#519));
#521=PRESENTATION_STYLE_ASSIGNMENT((#522));
#522=SURFACE_STYLE_USAGE(.BOTH.,#523);
#523=SURFACE_SIDE_STYLE('',(#524));
#524=SURFACE_STYLE_FILL_AREA(#525);
#525=FILL_AREA_STYLE('Acier - Satin\X\E9',(#526));
#526=FILL_AREA_STYLE_COLOUR('Acier - Satin\X\E9',#527);
#527=COLOUR_RGB('Acier - Satin\X\E9',0.627450980392157,0.627450980392157,
0.627450980392157);
ENDSEC;
END-ISO-10303-21;
