ISO-10303-21;
HEADER;

/* File generated by Shapr3D Version 3.0 */

FILE_DESCRIPTION(('HOOPS Exchange Step'),'2;1');

FILE_NAME('/private/var/mobile/Containers/Data/Application/AE146DA9-E944-40F0-9A25-2B2D99348358/tmp/export/temp_export',
'2022-10-19T14:11:44+02:00',
('mobile'),
('Shapr3D Limited'),
'HOOPS Exchange 2022.1',
'Shapr3D',
'Authorized');

FILE_SCHEMA( ('AP203_CONFIGURATION_CONTROLLED_3D_DESIGN_OF_MECHANICAL_PARTS_AND_ASSEMBLIES_MIM_LF') );

ENDSEC;

DATA;
#3=(NAMED_UNIT(*)PLANE_ANGLE_UNIT()SI_UNIT($,.RADIAN.));
#4=PLANE_ANGLE_MEASURE_WITH_UNIT(PLANE_ANGLE_MEASURE(0.0174532925),#3);
#5=(CONVERSION_BASED_UNIT('DEGREE',#4)NAMED_UNIT(#6)PLANE_ANGLE_UNIT());
#6=DIMENSIONAL_EXPONENTS(0.,0.,0.,0.,0.,0.,0.);
#7=(NAMED_UNIT(*)SI_UNIT($,.STERADIAN.)SOLID_ANGLE_UNIT());
#8=(LENGTH_UNIT()NAMED_UNIT(*)SI_UNIT(.MILLI.,.METRE.));
#9=UNCERTAINTY_MEASURE_WITH_UNIT(LENGTH_MEASURE(1.000000E-05),#8,'DISTANCE_ACCURACY_VALUE','Maximum Tolerance applied to model');
#10=(GEOMETRIC_REPRESENTATION_CONTEXT(3)GLOBAL_UNCERTAINTY_ASSIGNED_CONTEXT((#9))GLOBAL_UNIT_ASSIGNED_CONTEXT((#8,#5,#7))REPRESENTATION_CONTEXT('','root'));
#12=CARTESIAN_POINT('',(0.,0.,0.));
#13=DIRECTION('',(0.,0.,1.));
#14=DIRECTION('',(1.,0.,0.));
#15=AXIS2_PLACEMENT_3D('',#12,#13,#14);
#27=CARTESIAN_POINT('',(12.,9.5,12.));
#28=DIRECTION('',(1.,0.,0.));
#29=DIRECTION('',(0.,0.,-1.));
#30=AXIS2_PLACEMENT_3D('',#27,#28,#29);
#31=PLANE('',#30);
#32=CARTESIAN_POINT('',(12.,137.5,10.));
#33=VERTEX_POINT('',#32);
#34=CARTESIAN_POINT('',(12.,4.,10.));
#35=VERTEX_POINT('',#34);
#36=CARTESIAN_POINT('',(12.,137.5,10.));
#37=DIRECTION('',(0.,-1.,0.));
#38=VECTOR('',#37,133.5);
#39=LINE('',#36,#38);
#40=EDGE_CURVE('',#33,#35,#39,.T.);
#41=ORIENTED_EDGE('',*,*,#40,.F.);
#42=CARTESIAN_POINT('',(12.,137.5,0.));
#43=VERTEX_POINT('',#42);
#44=CARTESIAN_POINT('',(12.,137.5,10.));
#45=DIRECTION('',(0.,0.,-1.));
#46=VECTOR('',#45,10.);
#47=LINE('',#44,#46);
#48=EDGE_CURVE('',#33,#43,#47,.T.);
#49=ORIENTED_EDGE('',*,*,#48,.T.);
#50=CARTESIAN_POINT('',(12.,4.,0.));
#51=VERTEX_POINT('',#50);
#52=CARTESIAN_POINT('',(12.,4.,0.));
#53=DIRECTION('',(0.,1.,0.));
#54=VECTOR('',#53,133.5);
#55=LINE('',#52,#54);
#56=EDGE_CURVE('',#51,#43,#55,.T.);
#57=ORIENTED_EDGE('',*,*,#56,.F.);
#58=CARTESIAN_POINT('',(12.,4.,10.));
#59=DIRECTION('',(0.,0.,-1.));
#60=VECTOR('',#59,10.);
#61=LINE('',#58,#60);
#62=EDGE_CURVE('',#35,#51,#61,.T.);
#63=ORIENTED_EDGE('',*,*,#62,.F.);
#64=EDGE_LOOP('',(#41,#49,#57,#63));
#65=FACE_BOUND('',#64,.T.);
#66=ADVANCED_FACE('',(#65),#31,.F.);
#67=CARTESIAN_POINT('',(17.5,4.,12.));
#68=DIRECTION('',(0.,1.,0.));
#69=DIRECTION('',(0.,0.,1.));
#70=AXIS2_PLACEMENT_3D('',#67,#68,#69);
#71=PLANE('',#70);
#72=ORIENTED_EDGE('',*,*,#62,.T.);
#73=CARTESIAN_POINT('',(95.,4.,0.));
#74=VERTEX_POINT('',#73);
#75=CARTESIAN_POINT('',(12.,4.,0.));
#76=DIRECTION('',(1.,0.,-0.));
#77=VECTOR('',#76,83.);
#78=LINE('',#75,#77);
#79=EDGE_CURVE('',#51,#74,#78,.T.);
#80=ORIENTED_EDGE('',*,*,#79,.T.);
#81=CARTESIAN_POINT('',(95.,4.,10.));
#82=VERTEX_POINT('',#81);
#83=CARTESIAN_POINT('',(95.,4.,10.));
#84=DIRECTION('',(0.,0.,-1.));
#85=VECTOR('',#84,10.);
#86=LINE('',#83,#85);
#87=EDGE_CURVE('',#82,#74,#86,.T.);
#88=ORIENTED_EDGE('',*,*,#87,.F.);
#89=CARTESIAN_POINT('',(12.,4.,10.));
#90=DIRECTION('',(1.,0.,-0.));
#91=VECTOR('',#90,83.);
#92=LINE('',#89,#91);
#93=EDGE_CURVE('',#35,#82,#92,.T.);
#94=ORIENTED_EDGE('',*,*,#93,.F.);
#95=EDGE_LOOP('',(#72,#80,#88,#94));
#96=FACE_BOUND('',#95,.T.);
#97=ADVANCED_FACE('',(#96),#71,.F.);
#98=CARTESIAN_POINT('',(-110.,-3.,10.));
#99=DIRECTION('',(0.,0.,1.));
#100=DIRECTION('',(1.,0.,0.));
#101=AXIS2_PLACEMENT_3D('',#98,#99,#100);
#102=PLANE('',#101);
#103=ORIENTED_EDGE('',*,*,#40,.T.);
#104=ORIENTED_EDGE('',*,*,#93,.T.);
#105=CARTESIAN_POINT('',(95.,137.5,10.));
#106=VERTEX_POINT('',#105);
#107=CARTESIAN_POINT('',(95.,4.,10.));
#108=DIRECTION('',(0.,1.,0.));
#109=VECTOR('',#108,133.5);
#110=LINE('',#107,#109);
#111=EDGE_CURVE('',#82,#106,#110,.T.);
#112=ORIENTED_EDGE('',*,*,#111,.T.);
#113=CARTESIAN_POINT('',(12.,137.5,10.));
#114=DIRECTION('',(1.,0.,-0.));
#115=VECTOR('',#114,83.);
#116=LINE('',#113,#115);
#117=EDGE_CURVE('',#33,#106,#116,.T.);
#118=ORIENTED_EDGE('',*,*,#117,.F.);
#119=EDGE_LOOP('',(#103,#104,#112,#118));
#120=FACE_BOUND('',#119,.T.);
#121=CARTESIAN_POINT('',(17.,9.,10.));
#122=VERTEX_POINT('',#121);
#123=CARTESIAN_POINT('',(90.,9.,10.));
#124=VERTEX_POINT('',#123);
#125=CARTESIAN_POINT('',(17.,9.,10.));
#126=DIRECTION('',(1.,0.,-0.));
#127=VECTOR('',#126,73.);
#128=LINE('',#125,#127);
#129=EDGE_CURVE('',#122,#124,#128,.T.);
#130=ORIENTED_EDGE('',*,*,#129,.F.);
#131=CARTESIAN_POINT('',(17.,132.,10.));
#132=VERTEX_POINT('',#131);
#133=CARTESIAN_POINT('',(17.,132.,10.));
#134=DIRECTION('',(0.,-1.,0.));
#135=VECTOR('',#134,123.);
#136=LINE('',#133,#135);
#137=EDGE_CURVE('',#132,#122,#136,.T.);
#138=ORIENTED_EDGE('',*,*,#137,.F.);
#139=CARTESIAN_POINT('',(90.,132.,10.));
#140=VERTEX_POINT('',#139);
#141=CARTESIAN_POINT('',(90.,132.,10.));
#142=DIRECTION('',(-1.,0.,0.));
#143=VECTOR('',#142,73.);
#144=LINE('',#141,#143);
#145=EDGE_CURVE('',#140,#132,#144,.T.);
#146=ORIENTED_EDGE('',*,*,#145,.F.);
#147=CARTESIAN_POINT('',(90.,9.,10.));
#148=DIRECTION('',(0.,1.,0.));
#149=VECTOR('',#148,123.);
#150=LINE('',#147,#149);
#151=EDGE_CURVE('',#124,#140,#150,.T.);
#152=ORIENTED_EDGE('',*,*,#151,.F.);
#153=EDGE_LOOP('',(#130,#138,#146,#152));
#154=FACE_BOUND('',#153,.T.);
#155=ADVANCED_FACE('',(#120,#154),#102,.T.);
#156=CARTESIAN_POINT('',(95.,9.5,12.));
#157=DIRECTION('',(-1.,0.,0.));
#158=DIRECTION('',(0.,0.,1.));
#159=AXIS2_PLACEMENT_3D('',#156,#157,#158);
#160=PLANE('',#159);
#161=ORIENTED_EDGE('',*,*,#111,.F.);
#162=ORIENTED_EDGE('',*,*,#87,.T.);
#163=CARTESIAN_POINT('',(95.,137.5,0.));
#164=VERTEX_POINT('',#163);
#165=CARTESIAN_POINT('',(95.,4.,0.));
#166=DIRECTION('',(0.,1.,0.));
#167=VECTOR('',#166,133.5);
#168=LINE('',#165,#167);
#169=EDGE_CURVE('',#74,#164,#168,.T.);
#170=ORIENTED_EDGE('',*,*,#169,.T.);
#171=CARTESIAN_POINT('',(95.,137.5,10.));
#172=DIRECTION('',(0.,0.,-1.));
#173=VECTOR('',#172,10.);
#174=LINE('',#171,#173);
#175=EDGE_CURVE('',#106,#164,#174,.T.);
#176=ORIENTED_EDGE('',*,*,#175,.F.);
#177=EDGE_LOOP('',(#161,#162,#170,#176));
#178=FACE_BOUND('',#177,.T.);
#179=ADVANCED_FACE('',(#178),#160,.F.);
#180=CARTESIAN_POINT('',(53.5,137.5,10.));
#181=DIRECTION('',(0.,1.,0.));
#182=DIRECTION('',(0.,0.,1.));
#183=AXIS2_PLACEMENT_3D('',#180,#181,#182);
#184=PLANE('',#183);
#185=CARTESIAN_POINT('',(92.5,137.5,7.2));
#186=VERTEX_POINT('',#185);
#187=CARTESIAN_POINT('',(92.5,137.5,2.6));
#188=VERTEX_POINT('',#187);
#189=CARTESIAN_POINT('',(92.5,137.5,7.2));
#190=DIRECTION('',(0.,0.,-1.));
#191=VECTOR('',#190,4.6);
#192=LINE('',#189,#191);
#193=EDGE_CURVE('',#186,#188,#192,.T.);
#194=ORIENTED_EDGE('',*,*,#193,.F.);
#195=CARTESIAN_POINT('',(14.5,137.5,7.2));
#196=VERTEX_POINT('',#195);
#197=CARTESIAN_POINT('',(14.5,137.5,7.2));
#198=DIRECTION('',(1.,0.,-0.));
#199=VECTOR('',#198,78.);
#200=LINE('',#197,#199);
#201=EDGE_CURVE('',#196,#186,#200,.T.);
#202=ORIENTED_EDGE('',*,*,#201,.F.);
#203=CARTESIAN_POINT('',(14.5,137.5,2.6));
#204=VERTEX_POINT('',#203);
#205=CARTESIAN_POINT('',(14.5,137.5,2.6));
#206=DIRECTION('',(0.,0.,1.));
#207=VECTOR('',#206,4.6);
#208=LINE('',#205,#207);
#209=EDGE_CURVE('',#204,#196,#208,.T.);
#210=ORIENTED_EDGE('',*,*,#209,.F.);
#211=CARTESIAN_POINT('',(14.5,137.5,2.6));
#212=DIRECTION('',(1.,0.,-0.));
#213=VECTOR('',#212,78.);
#214=LINE('',#211,#213);
#215=EDGE_CURVE('',#204,#188,#214,.T.);
#216=ORIENTED_EDGE('',*,*,#215,.T.);
#217=EDGE_LOOP('',(#194,#202,#210,#216));
#218=FACE_BOUND('',#217,.T.);
#219=CARTESIAN_POINT('',(12.,137.5,0.));
#220=DIRECTION('',(1.,0.,-0.));
#221=VECTOR('',#220,83.);
#222=LINE('',#219,#221);
#223=EDGE_CURVE('',#43,#164,#222,.T.);
#224=ORIENTED_EDGE('',*,*,#223,.F.);
#225=ORIENTED_EDGE('',*,*,#48,.F.);
#226=ORIENTED_EDGE('',*,*,#117,.T.);
#227=ORIENTED_EDGE('',*,*,#175,.T.);
#228=EDGE_LOOP('',(#224,#225,#226,#227));
#229=FACE_BOUND('',#228,.T.);
#230=ADVANCED_FACE('',(#218,#229),#184,.T.);
#231=CARTESIAN_POINT('',(0.,-1.,0.));
#232=DIRECTION('',(0.,0.,1.));
#233=DIRECTION('',(1.,0.,0.));
#234=AXIS2_PLACEMENT_3D('',#231,#232,#233);
#235=PLANE('',#234);
#236=ORIENTED_EDGE('',*,*,#223,.T.);
#237=ORIENTED_EDGE('',*,*,#169,.F.);
#238=ORIENTED_EDGE('',*,*,#79,.F.);
#239=ORIENTED_EDGE('',*,*,#56,.T.);
#240=EDGE_LOOP('',(#236,#237,#238,#239));
#241=FACE_BOUND('',#240,.T.);
#242=ADVANCED_FACE('',(#241),#235,.F.);
#243=CARTESIAN_POINT('',(53.5,132.,6.));
#244=DIRECTION('',(0.,1.,0.));
#245=DIRECTION('',(0.,0.,1.));
#246=AXIS2_PLACEMENT_3D('',#243,#244,#245);
#247=PLANE('',#246);
#248=CARTESIAN_POINT('',(17.,132.,7.2));
#249=VERTEX_POINT('',#248);
#250=CARTESIAN_POINT('',(17.,132.,7.2));
#251=DIRECTION('',(0.,0.,1.));
#252=VECTOR('',#251,2.8);
#253=LINE('',#250,#252);
#254=EDGE_CURVE('',#249,#132,#253,.T.);
#255=ORIENTED_EDGE('',*,*,#254,.F.);
#256=CARTESIAN_POINT('',(90.,132.,7.2));
#257=VERTEX_POINT('',#256);
#258=CARTESIAN_POINT('',(17.,132.,7.2));
#259=DIRECTION('',(1.,0.,-0.));
#260=VECTOR('',#259,73.);
#261=LINE('',#258,#260);
#262=EDGE_CURVE('',#249,#257,#261,.T.);
#263=ORIENTED_EDGE('',*,*,#262,.T.);
#264=CARTESIAN_POINT('',(90.,132.,7.2));
#265=DIRECTION('',(0.,0.,1.));
#266=VECTOR('',#265,2.8);
#267=LINE('',#264,#266);
#268=EDGE_CURVE('',#257,#140,#267,.T.);
#269=ORIENTED_EDGE('',*,*,#268,.T.);
#270=ORIENTED_EDGE('',*,*,#145,.T.);
#271=EDGE_LOOP('',(#255,#263,#269,#270));
#272=FACE_BOUND('',#271,.T.);
#273=ADVANCED_FACE('',(#272),#247,.F.);
#274=CARTESIAN_POINT('',(17.,70.499999344,6.));
#275=DIRECTION('',(-1.,0.,0.));
#276=DIRECTION('',(0.,0.,1.));
#277=AXIS2_PLACEMENT_3D('',#274,#275,#276);
#278=PLANE('',#277);
#279=CARTESIAN_POINT('',(17.,9.,7.2));
#280=VERTEX_POINT('',#279);
#281=CARTESIAN_POINT('',(17.,9.,7.2));
#282=DIRECTION('',(0.,0.,1.));
#283=VECTOR('',#282,2.8);
#284=LINE('',#281,#283);
#285=EDGE_CURVE('',#280,#122,#284,.T.);
#286=ORIENTED_EDGE('',*,*,#285,.F.);
#287=CARTESIAN_POINT('',(17.,9.,7.2));
#288=DIRECTION('',(0.,1.,0.));
#289=VECTOR('',#288,123.);
#290=LINE('',#287,#289);
#291=EDGE_CURVE('',#280,#249,#290,.T.);
#292=ORIENTED_EDGE('',*,*,#291,.T.);
#293=ORIENTED_EDGE('',*,*,#254,.T.);
#294=ORIENTED_EDGE('',*,*,#137,.T.);
#295=EDGE_LOOP('',(#286,#292,#293,#294));
#296=FACE_BOUND('',#295,.T.);
#297=ADVANCED_FACE('',(#296),#278,.F.);
#298=CARTESIAN_POINT('',(53.5,9.,6.));
#299=DIRECTION('',(0.,-1.,0.));
#300=DIRECTION('',(0.,0.,-1.));
#301=AXIS2_PLACEMENT_3D('',#298,#299,#300);
#302=PLANE('',#301);
#303=CARTESIAN_POINT('',(90.,9.,7.2));
#304=VERTEX_POINT('',#303);
#305=CARTESIAN_POINT('',(90.,9.,7.2));
#306=DIRECTION('',(0.,0.,1.));
#307=VECTOR('',#306,2.8);
#308=LINE('',#305,#307);
#309=EDGE_CURVE('',#304,#124,#308,.T.);
#310=ORIENTED_EDGE('',*,*,#309,.F.);
#311=CARTESIAN_POINT('',(90.,9.,7.2));
#312=DIRECTION('',(-1.,0.,0.));
#313=VECTOR('',#312,73.);
#314=LINE('',#311,#313);
#315=EDGE_CURVE('',#304,#280,#314,.T.);
#316=ORIENTED_EDGE('',*,*,#315,.T.);
#317=ORIENTED_EDGE('',*,*,#285,.T.);
#318=ORIENTED_EDGE('',*,*,#129,.T.);
#319=EDGE_LOOP('',(#310,#316,#317,#318));
#320=FACE_BOUND('',#319,.T.);
#321=ADVANCED_FACE('',(#320),#302,.F.);
#322=CARTESIAN_POINT('',(90.,70.499999344,6.));
#323=DIRECTION('',(1.,0.,0.));
#324=DIRECTION('',(0.,0.,-1.));
#325=AXIS2_PLACEMENT_3D('',#322,#323,#324);
#326=PLANE('',#325);
#327=ORIENTED_EDGE('',*,*,#268,.F.);
#328=CARTESIAN_POINT('',(90.,132.,7.2));
#329=DIRECTION('',(0.,-1.,0.));
#330=VECTOR('',#329,123.);
#331=LINE('',#328,#330);
#332=EDGE_CURVE('',#257,#304,#331,.T.);
#333=ORIENTED_EDGE('',*,*,#332,.T.);
#334=ORIENTED_EDGE('',*,*,#309,.T.);
#335=ORIENTED_EDGE('',*,*,#151,.T.);
#336=EDGE_LOOP('',(#327,#333,#334,#335));
#337=FACE_BOUND('',#336,.T.);
#338=ADVANCED_FACE('',(#337),#326,.F.);
#339=CARTESIAN_POINT('',(53.5,7.5,7.2));
#340=DIRECTION('',(0.,0.,1.));
#341=DIRECTION('',(1.,0.,0.));
#342=AXIS2_PLACEMENT_3D('',#339,#340,#341);
#343=PLANE('',#342);
#344=ORIENTED_EDGE('',*,*,#201,.T.);
#345=CARTESIAN_POINT('',(92.5,7.5,7.2));
#346=VERTEX_POINT('',#345);
#347=CARTESIAN_POINT('',(92.5,7.5,7.2));
#348=DIRECTION('',(0.,1.,0.));
#349=VECTOR('',#348,130.);
#350=LINE('',#347,#349);
#351=EDGE_CURVE('',#346,#186,#350,.T.);
#352=ORIENTED_EDGE('',*,*,#351,.F.);
#353=CARTESIAN_POINT('',(14.5,7.5,7.2));
#354=VERTEX_POINT('',#353);
#355=CARTESIAN_POINT('',(14.5,7.5,7.2));
#356=DIRECTION('',(1.,0.,-0.));
#357=VECTOR('',#356,78.);
#358=LINE('',#355,#357);
#359=EDGE_CURVE('',#354,#346,#358,.T.);
#360=ORIENTED_EDGE('',*,*,#359,.F.);
#361=CARTESIAN_POINT('',(14.5,7.5,7.2));
#362=DIRECTION('',(0.,1.,0.));
#363=VECTOR('',#362,130.);
#364=LINE('',#361,#363);
#365=EDGE_CURVE('',#354,#196,#364,.T.);
#366=ORIENTED_EDGE('',*,*,#365,.T.);
#367=EDGE_LOOP('',(#344,#352,#360,#366));
#368=FACE_BOUND('',#367,.T.);
#369=ORIENTED_EDGE('',*,*,#291,.F.);
#370=ORIENTED_EDGE('',*,*,#315,.F.);
#371=ORIENTED_EDGE('',*,*,#332,.F.);
#372=ORIENTED_EDGE('',*,*,#262,.F.);
#373=EDGE_LOOP('',(#369,#370,#371,#372));
#374=FACE_BOUND('',#373,.T.);
#375=ADVANCED_FACE('',(#368,#374),#343,.F.);
#376=CARTESIAN_POINT('',(92.5,7.5,4.95));
#377=DIRECTION('',(1.,0.,0.));
#378=DIRECTION('',(0.,0.,-1.));
#379=AXIS2_PLACEMENT_3D('',#376,#377,#378);
#380=PLANE('',#379);
#381=ORIENTED_EDGE('',*,*,#193,.T.);
#382=CARTESIAN_POINT('',(92.5,7.5,2.6));
#383=VERTEX_POINT('',#382);
#384=CARTESIAN_POINT('',(92.5,7.5,2.6));
#385=DIRECTION('',(0.,1.,0.));
#386=VECTOR('',#385,130.);
#387=LINE('',#384,#386);
#388=EDGE_CURVE('',#383,#188,#387,.T.);
#389=ORIENTED_EDGE('',*,*,#388,.F.);
#390=CARTESIAN_POINT('',(92.5,7.5,7.2));
#391=DIRECTION('',(0.,0.,-1.));
#392=VECTOR('',#391,4.6);
#393=LINE('',#390,#392);
#394=EDGE_CURVE('',#346,#383,#393,.T.);
#395=ORIENTED_EDGE('',*,*,#394,.F.);
#396=ORIENTED_EDGE('',*,*,#351,.T.);
#397=EDGE_LOOP('',(#381,#389,#395,#396));
#398=FACE_BOUND('',#397,.T.);
#399=ADVANCED_FACE('',(#398),#380,.F.);
#400=CARTESIAN_POINT('',(14.5,7.5,4.95));
#401=DIRECTION('',(-1.,0.,0.));
#402=DIRECTION('',(0.,0.,1.));
#403=AXIS2_PLACEMENT_3D('',#400,#401,#402);
#404=PLANE('',#403);
#405=ORIENTED_EDGE('',*,*,#209,.T.);
#406=ORIENTED_EDGE('',*,*,#365,.F.);
#407=CARTESIAN_POINT('',(14.5,7.5,2.6));
#408=VERTEX_POINT('',#407);
#409=CARTESIAN_POINT('',(14.5,7.5,2.6));
#410=DIRECTION('',(0.,0.,1.));
#411=VECTOR('',#410,4.6);
#412=LINE('',#409,#411);
#413=EDGE_CURVE('',#408,#354,#412,.T.);
#414=ORIENTED_EDGE('',*,*,#413,.F.);
#415=CARTESIAN_POINT('',(14.5,7.5,2.6));
#416=DIRECTION('',(0.,1.,0.));
#417=VECTOR('',#416,130.);
#418=LINE('',#415,#417);
#419=EDGE_CURVE('',#408,#204,#418,.T.);
#420=ORIENTED_EDGE('',*,*,#419,.T.);
#421=EDGE_LOOP('',(#405,#406,#414,#420));
#422=FACE_BOUND('',#421,.T.);
#423=ADVANCED_FACE('',(#422),#404,.F.);
#424=CARTESIAN_POINT('',(0.,7.5,0.));
#425=DIRECTION('',(0.,1.,0.));
#426=DIRECTION('',(0.,0.,1.));
#427=AXIS2_PLACEMENT_3D('',#424,#425,#426);
#428=PLANE('',#427);
#429=ORIENTED_EDGE('',*,*,#394,.T.);
#430=CARTESIAN_POINT('',(14.5,7.5,2.6));
#431=DIRECTION('',(1.,0.,-0.));
#432=VECTOR('',#431,78.);
#433=LINE('',#430,#432);
#434=EDGE_CURVE('',#408,#383,#433,.T.);
#435=ORIENTED_EDGE('',*,*,#434,.F.);
#436=ORIENTED_EDGE('',*,*,#413,.T.);
#437=ORIENTED_EDGE('',*,*,#359,.T.);
#438=EDGE_LOOP('',(#429,#435,#436,#437));
#439=FACE_BOUND('',#438,.T.);
#440=ADVANCED_FACE('',(#439),#428,.T.);
#441=CARTESIAN_POINT('',(0.,0.,2.6));
#442=DIRECTION('',(0.,0.,1.));
#443=DIRECTION('',(1.,0.,0.));
#444=AXIS2_PLACEMENT_3D('',#441,#442,#443);
#445=PLANE('',#444);
#446=ORIENTED_EDGE('',*,*,#215,.F.);
#447=ORIENTED_EDGE('',*,*,#419,.F.);
#448=ORIENTED_EDGE('',*,*,#434,.T.);
#449=ORIENTED_EDGE('',*,*,#388,.T.);
#450=EDGE_LOOP('',(#446,#447,#448,#449));
#451=FACE_BOUND('',#450,.T.);
#452=ADVANCED_FACE('',(#451),#445,.T.);
#453=CLOSED_SHELL('',(#66,#97,#155,#179,#230,#242,#273,#297,#321,#338,#375,#399,#423,#440,#452));
#454=MANIFOLD_SOLID_BREP('Corps 03',#453);
#455=COLOUR_RGB('',0.494117647,0.494117647,0.525490224);
#456=FILL_AREA_STYLE_COLOUR('',#455);
#457=FILL_AREA_STYLE('',(#456));
#458=SURFACE_STYLE_FILL_AREA(#457);
#459=SURFACE_SIDE_STYLE('',(#458));
#460=SURFACE_STYLE_USAGE(.BOTH.,#459);
#461=PRESENTATION_STYLE_ASSIGNMENT((#460));
#26=STYLED_ITEM('',(#461),#454);
#16=SHAPE_REPRESENTATION('root',(#15),#10);
#17=ADVANCED_BREP_SHAPE_REPRESENTATION('root',(#454),#10);
#469=SHAPE_REPRESENTATION_RELATIONSHIP('','',#16,#17);
#470=APPLICATION_CONTEXT('configuration controlled 3D design of mechanical parts and assemblies');
#471=APPLICATION_PROTOCOL_DEFINITION('international standard','configuration_control_3d_design_ed2_mim',2004,#470);
#472=PRODUCT_CONTEXT('',#470,'mechanical');
#473=PRODUCT_DEFINITION_CONTEXT('part definition',#470,'design');
#24=PRODUCT('root','root','',(#472));
#474=PRODUCT_RELATED_PRODUCT_CATEGORY('part','',(#24));
#475=PRODUCT_DEFINITION_FORMATION_WITH_SPECIFIED_SOURCE('','',#24,.NOT_KNOWN.);
#25=PRODUCT_DEFINITION('design','',#475,#473);
#23=PRODUCT_DEFINITION_SHAPE('','',#25);
#476=SHAPE_DEFINITION_REPRESENTATION(#23,#16);
#11=DRAUGHTING_MODEL('',(),#10);
#1=MECHANICAL_DESIGN_GEOMETRIC_PRESENTATION_REPRESENTATION('',(#26),#10);
ENDSEC;
END-ISO-10303-21;
