ISO-10303-21;
HEADER;

/* File generated by Shapr3D Version 3.0 */

FILE_DESCRIPTION(('HOOPS Exchange Step'),'2;1');

FILE_NAME('/private/var/mobile/Containers/Data/Application/AE146DA9-E944-40F0-9A25-2B2D99348358/tmp/export/temp_export',
'2022-10-19T14:27:37+02:00',
('mobile'),
('Shapr3D Limited'),
'HOOPS Exchange 2022.1',
'Shapr3D',
'Authorized');

FILE_SCHEMA( ('AP203_CONFIGURATION_CONTROLLED_3D_DESIGN_OF_MECHANICAL_PARTS_AND_ASSEMBLIES_MIM_LF') );

ENDSEC;

DATA;
#3=(NAMED_UNIT(*)PLANE_ANGLE_UNIT()SI_UNIT($,.RADIAN.));
#4=PLANE_ANGLE_MEASURE_WITH_UNIT(PLANE_ANGLE_MEASURE(0.0174532925),#3);
#5=(CONVERSION_BASED_UNIT('DEGREE',#4)NAMED_UNIT(#6)PLANE_ANGLE_UNIT());
#6=DIMENSIONAL_EXPONENTS(0.,0.,0.,0.,0.,0.,0.);
#7=(NAMED_UNIT(*)SI_UNIT($,.STERADIAN.)SOLID_ANGLE_UNIT());
#8=(LENGTH_UNIT()NAMED_UNIT(*)SI_UNIT(.MILLI.,.METRE.));
#9=UNCERTAINTY_MEASURE_WITH_UNIT(LENGTH_MEASURE(1.000000E-05),#8,'DISTANCE_ACCURACY_VALUE','Maximum Tolerance applied to model');
#10=(GEOMETRIC_REPRESENTATION_CONTEXT(3)GLOBAL_UNCERTAINTY_ASSIGNED_CONTEXT((#9))GLOBAL_UNIT_ASSIGNED_CONTEXT((#8,#5,#7))REPRESENTATION_CONTEXT('','root'));
#12=CARTESIAN_POINT('',(0.,0.,0.));
#13=DIRECTION('',(0.,0.,1.));
#14=DIRECTION('',(1.,0.,0.));
#15=AXIS2_PLACEMENT_3D('TS3D_PRODUCT_CSYS',#12,#13,#14);
#27=CARTESIAN_POINT('',(170.000002623,45.000001043,4.));
#28=DIRECTION('',(0.,1.,0.));
#29=DIRECTION('',(0.,0.,1.));
#30=AXIS2_PLACEMENT_3D('',#27,#28,#29);
#31=PLANE('',#30);
#32=CARTESIAN_POINT('',(136.500002623,45.000001043,4.));
#33=VERTEX_POINT('',#32);
#34=CARTESIAN_POINT('',(203.499998689,45.000001043,4.));
#35=VERTEX_POINT('',#34);
#36=CARTESIAN_POINT('',(136.500002623,45.000001043,4.));
#37=DIRECTION('',(1.,0.,-0.));
#38=VECTOR('',#37,66.999996066);
#39=LINE('',#36,#38);
#40=EDGE_CURVE('',#33,#35,#39,.T.);
#41=ORIENTED_EDGE('',*,*,#40,.T.);
#42=CARTESIAN_POINT('',(203.499998689,45.000001043,0.));
#43=VERTEX_POINT('',#42);
#44=CARTESIAN_POINT('',(203.499998689,45.000001043,4.));
#45=DIRECTION('',(0.,0.,-1.));
#46=VECTOR('',#45,4.);
#47=LINE('',#44,#46);
#48=EDGE_CURVE('',#35,#43,#47,.T.);
#49=ORIENTED_EDGE('',*,*,#48,.T.);
#50=CARTESIAN_POINT('',(136.500002623,45.000001043,0.));
#51=VERTEX_POINT('',#50);
#52=CARTESIAN_POINT('',(136.500002623,45.000001043,0.));
#53=DIRECTION('',(1.,0.,-0.));
#54=VECTOR('',#53,66.999996066);
#55=LINE('',#52,#54);
#56=EDGE_CURVE('',#51,#43,#55,.T.);
#57=ORIENTED_EDGE('',*,*,#56,.F.);
#58=CARTESIAN_POINT('',(136.500002623,45.000001043,0.));
#59=DIRECTION('',(-0.,-0.,1.));
#60=VECTOR('',#59,4.);
#61=LINE('',#58,#60);
#62=EDGE_CURVE('',#51,#33,#61,.T.);
#63=ORIENTED_EDGE('',*,*,#62,.T.);
#64=EDGE_LOOP('',(#41,#49,#57,#63));
#65=FACE_BOUND('',#64,.T.);
#66=ADVANCED_FACE('',(#65),#31,.T.);
#67=CARTESIAN_POINT('',(126.500002623,26.999997765,4.));
#68=DIRECTION('',(1.,0.,0.));
#69=DIRECTION('',(0.,0.,-1.));
#70=AXIS2_PLACEMENT_3D('',#67,#68,#69);
#71=PLANE('',#70);
#72=CARTESIAN_POINT('',(126.500002623,35.000001043,4.));
#73=VERTEX_POINT('',#72);
#74=CARTESIAN_POINT('',(126.500002623,15.,4.));
#75=VERTEX_POINT('',#74);
#76=CARTESIAN_POINT('',(126.500002623,35.000001043,4.));
#77=DIRECTION('',(0.,-1.,0.));
#78=VECTOR('',#77,20.000001043);
#79=LINE('',#76,#78);
#80=EDGE_CURVE('',#73,#75,#79,.T.);
#81=ORIENTED_EDGE('',*,*,#80,.F.);
#82=CARTESIAN_POINT('',(126.500002623,35.000001043,0.));
#83=VERTEX_POINT('',#82);
#84=CARTESIAN_POINT('',(126.500002623,35.000001043,4.));
#85=DIRECTION('',(0.,0.,-1.));
#86=VECTOR('',#85,4.);
#87=LINE('',#84,#86);
#88=EDGE_CURVE('',#73,#83,#87,.T.);
#89=ORIENTED_EDGE('',*,*,#88,.T.);
#90=CARTESIAN_POINT('',(126.500002623,15.,0.));
#91=VERTEX_POINT('',#90);
#92=CARTESIAN_POINT('',(126.500002623,35.000001043,0.));
#93=DIRECTION('',(0.,-1.,0.));
#94=VECTOR('',#93,20.000001043);
#95=LINE('',#92,#94);
#96=EDGE_CURVE('',#83,#91,#95,.T.);
#97=ORIENTED_EDGE('',*,*,#96,.T.);
#98=CARTESIAN_POINT('',(126.500002623,15.,0.));
#99=DIRECTION('',(-0.,-0.,1.));
#100=VECTOR('',#99,4.);
#101=LINE('',#98,#100);
#102=EDGE_CURVE('',#91,#75,#101,.T.);
#103=ORIENTED_EDGE('',*,*,#102,.T.);
#104=EDGE_LOOP('',(#81,#89,#97,#103));
#105=FACE_BOUND('',#104,.T.);
#106=ADVANCED_FACE('',(#105),#71,.F.);
#107=CARTESIAN_POINT('',(170.000002623,5.,4.));
#108=DIRECTION('',(0.,1.,0.));
#109=DIRECTION('',(0.,0.,1.));
#110=AXIS2_PLACEMENT_3D('',#107,#108,#109);
#111=PLANE('',#110);
#112=CARTESIAN_POINT('',(136.500002623,5.,4.));
#113=VERTEX_POINT('',#112);
#114=CARTESIAN_POINT('',(203.500001311,5.,4.));
#115=VERTEX_POINT('',#114);
#116=CARTESIAN_POINT('',(136.500002623,5.,4.));
#117=DIRECTION('',(1.,0.,-0.));
#118=VECTOR('',#117,66.999998689);
#119=LINE('',#116,#118);
#120=EDGE_CURVE('',#113,#115,#119,.T.);
#121=ORIENTED_EDGE('',*,*,#120,.F.);
#122=CARTESIAN_POINT('',(136.500002623,5.,0.));
#123=VERTEX_POINT('',#122);
#124=CARTESIAN_POINT('',(136.500002623,5.,4.));
#125=DIRECTION('',(0.,0.,-1.));
#126=VECTOR('',#125,4.);
#127=LINE('',#124,#126);
#128=EDGE_CURVE('',#113,#123,#127,.T.);
#129=ORIENTED_EDGE('',*,*,#128,.T.);
#130=CARTESIAN_POINT('',(203.500001311,5.,0.));
#131=VERTEX_POINT('',#130);
#132=CARTESIAN_POINT('',(136.500002623,5.,0.));
#133=DIRECTION('',(1.,0.,-0.));
#134=VECTOR('',#133,66.999998689);
#135=LINE('',#132,#134);
#136=EDGE_CURVE('',#123,#131,#135,.T.);
#137=ORIENTED_EDGE('',*,*,#136,.T.);
#138=CARTESIAN_POINT('',(203.500001311,5.,0.));
#139=DIRECTION('',(-0.,-0.,1.));
#140=VECTOR('',#139,4.);
#141=LINE('',#138,#140);
#142=EDGE_CURVE('',#131,#115,#141,.T.);
#143=ORIENTED_EDGE('',*,*,#142,.T.);
#144=EDGE_LOOP('',(#121,#129,#137,#143));
#145=FACE_BOUND('',#144,.T.);
#146=ADVANCED_FACE('',(#145),#111,.F.);
#147=CARTESIAN_POINT('',(131.5,12.5,4.));
#148=DIRECTION('',(1.,0.,0.));
#149=DIRECTION('',(0.,0.,-1.));
#150=AXIS2_PLACEMENT_3D('',#147,#148,#149);
#151=PLANE('',#150);
#152=CARTESIAN_POINT('',(131.5,15.,0.));
#153=VERTEX_POINT('',#152);
#154=CARTESIAN_POINT('',(131.5,10.,0.));
#155=VERTEX_POINT('',#154);
#156=CARTESIAN_POINT('',(131.5,15.,0.));
#157=DIRECTION('',(0.,-1.,0.));
#158=VECTOR('',#157,5.);
#159=LINE('',#156,#158);
#160=EDGE_CURVE('',#153,#155,#159,.T.);
#161=ORIENTED_EDGE('',*,*,#160,.F.);
#162=CARTESIAN_POINT('',(131.5,15.,4.));
#163=VERTEX_POINT('',#162);
#164=CARTESIAN_POINT('',(131.5,15.,4.));
#165=DIRECTION('',(0.,0.,-1.));
#166=VECTOR('',#165,4.);
#167=LINE('',#164,#166);
#168=EDGE_CURVE('',#163,#153,#167,.T.);
#169=ORIENTED_EDGE('',*,*,#168,.F.);
#170=CARTESIAN_POINT('',(131.5,10.,4.));
#171=VERTEX_POINT('',#170);
#172=CARTESIAN_POINT('',(131.5,15.,4.));
#173=DIRECTION('',(0.,-1.,0.));
#174=VECTOR('',#173,5.);
#175=LINE('',#172,#174);
#176=EDGE_CURVE('',#163,#171,#175,.T.);
#177=ORIENTED_EDGE('',*,*,#176,.T.);
#178=CARTESIAN_POINT('',(131.5,10.,4.));
#179=DIRECTION('',(0.,0.,-1.));
#180=VECTOR('',#179,4.);
#181=LINE('',#178,#180);
#182=EDGE_CURVE('',#171,#155,#181,.T.);
#183=ORIENTED_EDGE('',*,*,#182,.T.);
#184=EDGE_LOOP('',(#161,#169,#177,#183));
#185=FACE_BOUND('',#184,.T.);
#186=ADVANCED_FACE('',(#185),#151,.T.);
#187=CARTESIAN_POINT('',(170.,15.,4.));
#188=DIRECTION('',(0.,1.,0.));
#189=DIRECTION('',(0.,0.,1.));
#190=AXIS2_PLACEMENT_3D('',#187,#188,#189);
#191=PLANE('',#190);
#192=CARTESIAN_POINT('',(208.5,15.,0.));
#193=VERTEX_POINT('',#192);
#194=CARTESIAN_POINT('',(131.5,15.,0.));
#195=DIRECTION('',(1.,0.,-0.));
#196=VECTOR('',#195,77.);
#197=LINE('',#194,#196);
#198=EDGE_CURVE('',#153,#193,#197,.T.);
#199=ORIENTED_EDGE('',*,*,#198,.T.);
#200=CARTESIAN_POINT('',(208.5,15.,4.));
#201=VERTEX_POINT('',#200);
#202=CARTESIAN_POINT('',(208.5,15.,4.));
#203=DIRECTION('',(0.,0.,-1.));
#204=VECTOR('',#203,4.);
#205=LINE('',#202,#204);
#206=EDGE_CURVE('',#201,#193,#205,.T.);
#207=ORIENTED_EDGE('',*,*,#206,.F.);
#208=CARTESIAN_POINT('',(131.5,15.,4.));
#209=DIRECTION('',(1.,0.,-0.));
#210=VECTOR('',#209,77.);
#211=LINE('',#208,#210);
#212=EDGE_CURVE('',#163,#201,#211,.T.);
#213=ORIENTED_EDGE('',*,*,#212,.F.);
#214=ORIENTED_EDGE('',*,*,#168,.T.);
#215=EDGE_LOOP('',(#199,#207,#213,#214));
#216=FACE_BOUND('',#215,.T.);
#217=ADVANCED_FACE('',(#216),#191,.F.);
#218=CARTESIAN_POINT('',(208.5,12.5,4.));
#219=DIRECTION('',(-1.,0.,0.));
#220=DIRECTION('',(0.,0.,1.));
#221=AXIS2_PLACEMENT_3D('',#218,#219,#220);
#222=PLANE('',#221);
#223=CARTESIAN_POINT('',(208.5,10.,0.));
#224=VERTEX_POINT('',#223);
#225=CARTESIAN_POINT('',(208.5,10.,0.));
#226=DIRECTION('',(0.,1.,0.));
#227=VECTOR('',#226,5.);
#228=LINE('',#225,#227);
#229=EDGE_CURVE('',#224,#193,#228,.T.);
#230=ORIENTED_EDGE('',*,*,#229,.F.);
#231=CARTESIAN_POINT('',(208.5,10.,4.));
#232=VERTEX_POINT('',#231);
#233=CARTESIAN_POINT('',(208.5,10.,4.));
#234=DIRECTION('',(0.,0.,-1.));
#235=VECTOR('',#234,4.);
#236=LINE('',#233,#235);
#237=EDGE_CURVE('',#232,#224,#236,.T.);
#238=ORIENTED_EDGE('',*,*,#237,.F.);
#239=CARTESIAN_POINT('',(208.5,10.,4.));
#240=DIRECTION('',(0.,1.,0.));
#241=VECTOR('',#240,5.);
#242=LINE('',#239,#241);
#243=EDGE_CURVE('',#232,#201,#242,.T.);
#244=ORIENTED_EDGE('',*,*,#243,.T.);
#245=ORIENTED_EDGE('',*,*,#206,.T.);
#246=EDGE_LOOP('',(#230,#238,#244,#245));
#247=FACE_BOUND('',#246,.T.);
#248=ADVANCED_FACE('',(#247),#222,.T.);
#249=CARTESIAN_POINT('',(170.,10.,4.));
#250=DIRECTION('',(0.,1.,0.));
#251=DIRECTION('',(0.,0.,1.));
#252=AXIS2_PLACEMENT_3D('',#249,#250,#251);
#253=PLANE('',#252);
#254=CARTESIAN_POINT('',(131.5,10.,0.));
#255=DIRECTION('',(1.,0.,-0.));
#256=VECTOR('',#255,77.);
#257=LINE('',#254,#256);
#258=EDGE_CURVE('',#155,#224,#257,.T.);
#259=ORIENTED_EDGE('',*,*,#258,.F.);
#260=ORIENTED_EDGE('',*,*,#182,.F.);
#261=CARTESIAN_POINT('',(131.5,10.,4.));
#262=DIRECTION('',(1.,0.,-0.));
#263=VECTOR('',#262,77.);
#264=LINE('',#261,#263);
#265=EDGE_CURVE('',#171,#232,#264,.T.);
#266=ORIENTED_EDGE('',*,*,#265,.T.);
#267=ORIENTED_EDGE('',*,*,#237,.T.);
#268=EDGE_LOOP('',(#259,#260,#266,#267));
#269=FACE_BOUND('',#268,.T.);
#270=ADVANCED_FACE('',(#269),#253,.T.);
#271=CARTESIAN_POINT('',(213.499999738,26.999997765,4.));
#272=DIRECTION('',(1.,0.000000131,0.));
#273=DIRECTION('',(-0.000000131,1.,0.));
#274=AXIS2_PLACEMENT_3D('',#271,#272,#273);
#275=PLANE('',#274);
#276=CARTESIAN_POINT('',(213.499998689,35.000002354,0.));
#277=VERTEX_POINT('',#276);
#278=CARTESIAN_POINT('',(213.500001311,15.000001311,0.));
#279=VERTEX_POINT('',#278);
#280=CARTESIAN_POINT('',(213.499998689,35.000002354,0.));
#281=DIRECTION('',(0.000000131,-1.,0.));
#282=VECTOR('',#281,20.000001043);
#283=LINE('',#280,#282);
#284=EDGE_CURVE('',#277,#279,#283,.T.);
#285=ORIENTED_EDGE('',*,*,#284,.F.);
#286=CARTESIAN_POINT('',(213.499998689,35.000002354,4.));
#287=VERTEX_POINT('',#286);
#288=CARTESIAN_POINT('',(213.499998689,35.000002354,0.));
#289=DIRECTION('',(-0.,-0.,1.));
#290=VECTOR('',#289,4.);
#291=LINE('',#288,#290);
#292=EDGE_CURVE('',#277,#287,#291,.T.);
#293=ORIENTED_EDGE('',*,*,#292,.T.);
#294=CARTESIAN_POINT('',(213.500001311,15.000001311,4.));
#295=VERTEX_POINT('',#294);
#296=CARTESIAN_POINT('',(213.499998689,35.000002354,4.));
#297=DIRECTION('',(0.000000131,-1.,0.));
#298=VECTOR('',#297,20.000001043);
#299=LINE('',#296,#298);
#300=EDGE_CURVE('',#287,#295,#299,.T.);
#301=ORIENTED_EDGE('',*,*,#300,.T.);
#302=CARTESIAN_POINT('',(213.500001311,15.000001311,4.));
#303=DIRECTION('',(0.,0.,-1.));
#304=VECTOR('',#303,4.);
#305=LINE('',#302,#304);
#306=EDGE_CURVE('',#295,#279,#305,.T.);
#307=ORIENTED_EDGE('',*,*,#306,.T.);
#308=EDGE_LOOP('',(#285,#293,#301,#307));
#309=FACE_BOUND('',#308,.T.);
#310=ADVANCED_FACE('',(#309),#275,.T.);
#311=CARTESIAN_POINT('',(0.,0.,4.));
#312=DIRECTION('',(0.,0.,1.));
#313=DIRECTION('',(1.,0.,0.));
#314=AXIS2_PLACEMENT_3D('',#311,#312,#313);
#315=PLANE('',#314);
#316=ORIENTED_EDGE('',*,*,#176,.F.);
#317=ORIENTED_EDGE('',*,*,#212,.T.);
#318=ORIENTED_EDGE('',*,*,#243,.F.);
#319=ORIENTED_EDGE('',*,*,#265,.F.);
#320=EDGE_LOOP('',(#316,#317,#318,#319));
#321=FACE_BOUND('',#320,.T.);
#322=ORIENTED_EDGE('',*,*,#300,.F.);
#323=CARTESIAN_POINT('',(203.499998689,35.000001043,4.));
#324=DIRECTION('',(0.,0.,1.));
#325=DIRECTION('',(1.,0.,-0.));
#326=AXIS2_PLACEMENT_3D('',#323,#324,#325);
#327=CIRCLE('',#326,10.);
#328=EDGE_CURVE('',#287,#35,#327,.T.);
#329=ORIENTED_EDGE('',*,*,#328,.T.);
#330=ORIENTED_EDGE('',*,*,#40,.F.);
#331=CARTESIAN_POINT('',(136.500002623,35.000001043,4.));
#332=DIRECTION('',(0.,0.,1.));
#333=DIRECTION('',(1.,0.,-0.));
#334=AXIS2_PLACEMENT_3D('',#331,#332,#333);
#335=CIRCLE('',#334,10.);
#336=EDGE_CURVE('',#33,#73,#335,.T.);
#337=ORIENTED_EDGE('',*,*,#336,.T.);
#338=ORIENTED_EDGE('',*,*,#80,.T.);
#339=CARTESIAN_POINT('',(136.500002623,15.,4.));
#340=DIRECTION('',(0.,0.,1.));
#341=DIRECTION('',(1.,0.,-0.));
#342=AXIS2_PLACEMENT_3D('',#339,#340,#341);
#343=CIRCLE('',#342,10.);
#344=EDGE_CURVE('',#75,#113,#343,.T.);
#345=ORIENTED_EDGE('',*,*,#344,.T.);
#346=ORIENTED_EDGE('',*,*,#120,.T.);
#347=CARTESIAN_POINT('',(203.500001311,15.,4.));
#348=DIRECTION('',(0.,0.,1.));
#349=DIRECTION('',(1.,0.,-0.));
#350=AXIS2_PLACEMENT_3D('',#347,#348,#349);
#351=CIRCLE('',#350,10.);
#352=EDGE_CURVE('',#115,#295,#351,.T.);
#353=ORIENTED_EDGE('',*,*,#352,.T.);
#354=EDGE_LOOP('',(#322,#329,#330,#337,#338,#345,#346,#353));
#355=FACE_BOUND('',#354,.T.);
#356=ADVANCED_FACE('',(#321,#355),#315,.T.);
#357=CARTESIAN_POINT('',(0.,0.,0.));
#358=DIRECTION('',(0.,0.,1.));
#359=DIRECTION('',(1.,0.,0.));
#360=AXIS2_PLACEMENT_3D('',#357,#358,#359);
#361=PLANE('',#360);
#362=ORIENTED_EDGE('',*,*,#160,.T.);
#363=ORIENTED_EDGE('',*,*,#258,.T.);
#364=ORIENTED_EDGE('',*,*,#229,.T.);
#365=ORIENTED_EDGE('',*,*,#198,.F.);
#366=EDGE_LOOP('',(#362,#363,#364,#365));
#367=FACE_BOUND('',#366,.T.);
#368=ORIENTED_EDGE('',*,*,#56,.T.);
#369=CARTESIAN_POINT('',(203.499998689,35.000001043,0.));
#370=DIRECTION('',(-0.,-0.,-1.));
#371=DIRECTION('',(1.,0.,-0.));
#372=AXIS2_PLACEMENT_3D('',#369,#370,#371);
#373=CIRCLE('',#372,10.);
#374=EDGE_CURVE('',#43,#277,#373,.T.);
#375=ORIENTED_EDGE('',*,*,#374,.T.);
#376=ORIENTED_EDGE('',*,*,#284,.T.);
#377=CARTESIAN_POINT('',(203.500001311,15.,0.));
#378=DIRECTION('',(-0.,-0.,-1.));
#379=DIRECTION('',(1.,0.,-0.));
#380=AXIS2_PLACEMENT_3D('',#377,#378,#379);
#381=CIRCLE('',#380,10.);
#382=EDGE_CURVE('',#279,#131,#381,.T.);
#383=ORIENTED_EDGE('',*,*,#382,.T.);
#384=ORIENTED_EDGE('',*,*,#136,.F.);
#385=CARTESIAN_POINT('',(136.500002623,15.,0.));
#386=DIRECTION('',(-0.,-0.,-1.));
#387=DIRECTION('',(1.,0.,-0.));
#388=AXIS2_PLACEMENT_3D('',#385,#386,#387);
#389=CIRCLE('',#388,10.);
#390=EDGE_CURVE('',#123,#91,#389,.T.);
#391=ORIENTED_EDGE('',*,*,#390,.T.);
#392=ORIENTED_EDGE('',*,*,#96,.F.);
#393=CARTESIAN_POINT('',(136.500002623,35.000001043,0.));
#394=DIRECTION('',(-0.,-0.,-1.));
#395=DIRECTION('',(1.,0.,-0.));
#396=AXIS2_PLACEMENT_3D('',#393,#394,#395);
#397=CIRCLE('',#396,10.);
#398=EDGE_CURVE('',#83,#51,#397,.T.);
#399=ORIENTED_EDGE('',*,*,#398,.T.);
#400=EDGE_LOOP('',(#368,#375,#376,#383,#384,#391,#392,#399));
#401=FACE_BOUND('',#400,.T.);
#402=ADVANCED_FACE('',(#367,#401),#361,.F.);
#403=CARTESIAN_POINT('',(203.500001311,15.,4.));
#404=DIRECTION('',(0.,0.,1.));
#405=DIRECTION('',(1.,0.,-0.));
#406=AXIS2_PLACEMENT_3D('',#403,#404,#405);
#407=CYLINDRICAL_SURFACE('',#406,10.);
#408=ORIENTED_EDGE('',*,*,#352,.F.);
#409=ORIENTED_EDGE('',*,*,#142,.F.);
#410=ORIENTED_EDGE('',*,*,#382,.F.);
#411=ORIENTED_EDGE('',*,*,#306,.F.);
#412=EDGE_LOOP('',(#408,#409,#410,#411));
#413=FACE_BOUND('',#412,.T.);
#414=ADVANCED_FACE('',(#413),#407,.T.);
#415=CARTESIAN_POINT('',(136.500002623,15.,4.));
#416=DIRECTION('',(0.,0.,-1.));
#417=DIRECTION('',(-1.,0.,0.));
#418=AXIS2_PLACEMENT_3D('',#415,#416,#417);
#419=CYLINDRICAL_SURFACE('',#418,10.);
#420=ORIENTED_EDGE('',*,*,#344,.F.);
#421=ORIENTED_EDGE('',*,*,#102,.F.);
#422=ORIENTED_EDGE('',*,*,#390,.F.);
#423=ORIENTED_EDGE('',*,*,#128,.F.);
#424=EDGE_LOOP('',(#420,#421,#422,#423));
#425=FACE_BOUND('',#424,.T.);
#426=ADVANCED_FACE('',(#425),#419,.T.);
#427=CARTESIAN_POINT('',(136.500002623,35.000001043,4.));
#428=DIRECTION('',(0.,0.,1.));
#429=DIRECTION('',(1.,0.,-0.));
#430=AXIS2_PLACEMENT_3D('',#427,#428,#429);
#431=CYLINDRICAL_SURFACE('',#430,10.);
#432=ORIENTED_EDGE('',*,*,#336,.F.);
#433=ORIENTED_EDGE('',*,*,#62,.F.);
#434=ORIENTED_EDGE('',*,*,#398,.F.);
#435=ORIENTED_EDGE('',*,*,#88,.F.);
#436=EDGE_LOOP('',(#432,#433,#434,#435));
#437=FACE_BOUND('',#436,.T.);
#438=ADVANCED_FACE('',(#437),#431,.T.);
#439=CARTESIAN_POINT('',(203.499998689,35.000001043,4.));
#440=DIRECTION('',(0.,0.,-1.));
#441=DIRECTION('',(-1.,0.,0.));
#442=AXIS2_PLACEMENT_3D('',#439,#440,#441);
#443=CYLINDRICAL_SURFACE('',#442,10.);
#444=ORIENTED_EDGE('',*,*,#328,.F.);
#445=ORIENTED_EDGE('',*,*,#292,.F.);
#446=ORIENTED_EDGE('',*,*,#374,.F.);
#447=ORIENTED_EDGE('',*,*,#48,.F.);
#448=EDGE_LOOP('',(#444,#445,#446,#447));
#449=FACE_BOUND('',#448,.T.);
#450=ADVANCED_FACE('',(#449),#443,.T.);
#451=CLOSED_SHELL('',(#66,#106,#146,#186,#217,#248,#270,#310,#356,#402,#414,#426,#438,#450));
#452=MANIFOLD_SOLID_BREP('Corps 04',#451);
#453=COLOUR_RGB('',0.494117647,0.494117647,0.525490224);
#454=FILL_AREA_STYLE_COLOUR('',#453);
#455=FILL_AREA_STYLE('',(#454));
#456=SURFACE_STYLE_FILL_AREA(#455);
#457=SURFACE_SIDE_STYLE('',(#456));
#458=SURFACE_STYLE_USAGE(.BOTH.,#457);
#459=PRESENTATION_STYLE_ASSIGNMENT((#458));
#26=STYLED_ITEM('',(#459),#452);
#461=CARTESIAN_POINT('',(170.,15.,1.));
#462=DIRECTION('',(0.,1.,0.));
#463=DIRECTION('',(0.,0.,1.));
#464=AXIS2_PLACEMENT_3D('',#461,#462,#463);
#465=PLANE('',#464);
#466=CARTESIAN_POINT('',(131.5,15.,0.));
#467=VERTEX_POINT('',#466);
#468=CARTESIAN_POINT('',(208.5,15.,0.));
#469=VERTEX_POINT('',#468);
#470=CARTESIAN_POINT('',(131.5,15.,0.));
#471=DIRECTION('',(1.,0.,-0.));
#472=VECTOR('',#471,77.);
#473=LINE('',#470,#472);
#474=EDGE_CURVE('',#467,#469,#473,.T.);
#475=ORIENTED_EDGE('',*,*,#474,.F.);
#476=CARTESIAN_POINT('',(131.5,15.,1.));
#477=VERTEX_POINT('',#476);
#478=CARTESIAN_POINT('',(131.5,15.,1.));
#479=DIRECTION('',(0.,0.,-1.));
#480=VECTOR('',#479,1.);
#481=LINE('',#478,#480);
#482=EDGE_CURVE('',#477,#467,#481,.T.);
#483=ORIENTED_EDGE('',*,*,#482,.F.);
#484=CARTESIAN_POINT('',(208.5,15.,1.));
#485=VERTEX_POINT('',#484);
#486=CARTESIAN_POINT('',(131.5,15.,1.));
#487=DIRECTION('',(1.,0.,-0.));
#488=VECTOR('',#487,77.);
#489=LINE('',#486,#488);
#490=EDGE_CURVE('',#477,#485,#489,.T.);
#491=ORIENTED_EDGE('',*,*,#490,.T.);
#492=CARTESIAN_POINT('',(208.5,15.,1.));
#493=DIRECTION('',(0.,0.,-1.));
#494=VECTOR('',#493,1.);
#495=LINE('',#492,#494);
#496=EDGE_CURVE('',#485,#469,#495,.T.);
#497=ORIENTED_EDGE('',*,*,#496,.T.);
#498=EDGE_LOOP('',(#475,#483,#491,#497));
#499=FACE_BOUND('',#498,.T.);
#500=ADVANCED_FACE('',(#499),#465,.T.);
#501=CARTESIAN_POINT('',(131.5,12.5,1.));
#502=DIRECTION('',(1.,0.,0.));
#503=DIRECTION('',(0.,0.,-1.));
#504=AXIS2_PLACEMENT_3D('',#501,#502,#503);
#505=PLANE('',#504);
#506=CARTESIAN_POINT('',(131.5,10.,0.));
#507=VERTEX_POINT('',#506);
#508=CARTESIAN_POINT('',(131.5,15.,0.));
#509=DIRECTION('',(0.,-1.,0.));
#510=VECTOR('',#509,5.);
#511=LINE('',#508,#510);
#512=EDGE_CURVE('',#467,#507,#511,.T.);
#513=ORIENTED_EDGE('',*,*,#512,.T.);
#514=CARTESIAN_POINT('',(131.5,10.,1.));
#515=VERTEX_POINT('',#514);
#516=CARTESIAN_POINT('',(131.5,10.,1.));
#517=DIRECTION('',(0.,0.,-1.));
#518=VECTOR('',#517,1.);
#519=LINE('',#516,#518);
#520=EDGE_CURVE('',#515,#507,#519,.T.);
#521=ORIENTED_EDGE('',*,*,#520,.F.);
#522=CARTESIAN_POINT('',(131.5,15.,1.));
#523=DIRECTION('',(0.,-1.,0.));
#524=VECTOR('',#523,5.);
#525=LINE('',#522,#524);
#526=EDGE_CURVE('',#477,#515,#525,.T.);
#527=ORIENTED_EDGE('',*,*,#526,.F.);
#528=ORIENTED_EDGE('',*,*,#482,.T.);
#529=EDGE_LOOP('',(#513,#521,#527,#528));
#530=FACE_BOUND('',#529,.T.);
#531=ADVANCED_FACE('',(#530),#505,.F.);
#532=CARTESIAN_POINT('',(170.,10.,1.));
#533=DIRECTION('',(0.,1.,0.));
#534=DIRECTION('',(0.,0.,1.));
#535=AXIS2_PLACEMENT_3D('',#532,#533,#534);
#536=PLANE('',#535);
#537=CARTESIAN_POINT('',(208.5,10.,0.));
#538=VERTEX_POINT('',#537);
#539=CARTESIAN_POINT('',(131.5,10.,0.));
#540=DIRECTION('',(1.,0.,-0.));
#541=VECTOR('',#540,77.);
#542=LINE('',#539,#541);
#543=EDGE_CURVE('',#507,#538,#542,.T.);
#544=ORIENTED_EDGE('',*,*,#543,.T.);
#545=CARTESIAN_POINT('',(208.5,10.,1.));
#546=VERTEX_POINT('',#545);
#547=CARTESIAN_POINT('',(208.5,10.,1.));
#548=DIRECTION('',(0.,0.,-1.));
#549=VECTOR('',#548,1.);
#550=LINE('',#547,#549);
#551=EDGE_CURVE('',#546,#538,#550,.T.);
#552=ORIENTED_EDGE('',*,*,#551,.F.);
#553=CARTESIAN_POINT('',(131.5,10.,1.));
#554=DIRECTION('',(1.,0.,-0.));
#555=VECTOR('',#554,77.);
#556=LINE('',#553,#555);
#557=EDGE_CURVE('',#515,#546,#556,.T.);
#558=ORIENTED_EDGE('',*,*,#557,.F.);
#559=ORIENTED_EDGE('',*,*,#520,.T.);
#560=EDGE_LOOP('',(#544,#552,#558,#559));
#561=FACE_BOUND('',#560,.T.);
#562=ADVANCED_FACE('',(#561),#536,.F.);
#563=CARTESIAN_POINT('',(208.5,12.5,1.));
#564=DIRECTION('',(-1.,0.,0.));
#565=DIRECTION('',(0.,0.,1.));
#566=AXIS2_PLACEMENT_3D('',#563,#564,#565);
#567=PLANE('',#566);
#568=CARTESIAN_POINT('',(208.5,10.,0.));
#569=DIRECTION('',(0.,1.,0.));
#570=VECTOR('',#569,5.);
#571=LINE('',#568,#570);
#572=EDGE_CURVE('',#538,#469,#571,.T.);
#573=ORIENTED_EDGE('',*,*,#572,.T.);
#574=ORIENTED_EDGE('',*,*,#496,.F.);
#575=CARTESIAN_POINT('',(208.5,10.,1.));
#576=DIRECTION('',(0.,1.,0.));
#577=VECTOR('',#576,5.);
#578=LINE('',#575,#577);
#579=EDGE_CURVE('',#546,#485,#578,.T.);
#580=ORIENTED_EDGE('',*,*,#579,.F.);
#581=ORIENTED_EDGE('',*,*,#551,.T.);
#582=EDGE_LOOP('',(#573,#574,#580,#581));
#583=FACE_BOUND('',#582,.T.);
#584=ADVANCED_FACE('',(#583),#567,.F.);
#585=CARTESIAN_POINT('',(0.,0.,1.));
#586=DIRECTION('',(0.,0.,1.));
#587=DIRECTION('',(1.,0.,0.));
#588=AXIS2_PLACEMENT_3D('',#585,#586,#587);
#589=PLANE('',#588);
#590=ORIENTED_EDGE('',*,*,#490,.F.);
#591=ORIENTED_EDGE('',*,*,#526,.T.);
#592=ORIENTED_EDGE('',*,*,#557,.T.);
#593=ORIENTED_EDGE('',*,*,#579,.T.);
#594=EDGE_LOOP('',(#590,#591,#592,#593));
#595=FACE_BOUND('',#594,.T.);
#596=ADVANCED_FACE('',(#595),#589,.T.);
#597=CARTESIAN_POINT('',(0.,0.,0.));
#598=DIRECTION('',(0.,0.,1.));
#599=DIRECTION('',(1.,0.,0.));
#600=AXIS2_PLACEMENT_3D('',#597,#598,#599);
#601=PLANE('',#600);
#602=ORIENTED_EDGE('',*,*,#474,.T.);
#603=ORIENTED_EDGE('',*,*,#572,.F.);
#604=ORIENTED_EDGE('',*,*,#543,.F.);
#605=ORIENTED_EDGE('',*,*,#512,.F.);
#606=EDGE_LOOP('',(#602,#603,#604,#605));
#607=FACE_BOUND('',#606,.T.);
#608=ADVANCED_FACE('',(#607),#601,.F.);
#609=CLOSED_SHELL('',(#500,#531,#562,#584,#596,#608));
#610=MANIFOLD_SOLID_BREP('Corps 03',#609);
#460=STYLED_ITEM('',(#459),#610);
#16=SHAPE_REPRESENTATION('root',(#15),#10);
#17=ADVANCED_BREP_SHAPE_REPRESENTATION('root',(#452,#610),#10);
#618=SHAPE_REPRESENTATION_RELATIONSHIP('','',#16,#17);
#619=APPLICATION_CONTEXT('configuration controlled 3D design of mechanical parts and assemblies');
#620=APPLICATION_PROTOCOL_DEFINITION('international standard','configuration_control_3d_design_ed2_mim',2004,#619);
#621=PRODUCT_CONTEXT('',#619,'mechanical');
#622=PRODUCT_DEFINITION_CONTEXT('part definition',#619,'design');
#24=PRODUCT('root','root','',(#621));
#623=PRODUCT_RELATED_PRODUCT_CATEGORY('part','',(#24));
#624=PRODUCT_DEFINITION_FORMATION_WITH_SPECIFIED_SOURCE('','',#24,.NOT_KNOWN.);
#25=PRODUCT_DEFINITION('design','',#624,#622);
#23=PRODUCT_DEFINITION_SHAPE('','',#25);
#625=SHAPE_DEFINITION_REPRESENTATION(#23,#16);
#11=DRAUGHTING_MODEL('',(),#10);
#1=MECHANICAL_DESIGN_GEOMETRIC_PRESENTATION_REPRESENTATION('',(#26,#460),#10);
ENDSEC;
END-ISO-10303-21;
