ISO-10303-21;
HEADER;
/* Generated by software containing ST-Developer
 * from STEP Tools, Inc. (www.steptools.com) 
 */
/* OPTION: using custom schema-name function */

FILE_DESCRIPTION(
/* description */ (''),
/* implementation_level */ '2;1');

FILE_NAME(
/* name */ '20221005_pion_10_5.stp',
/* time_stamp */ '2022-10-05T09:21:49+02:00',
/* author */ (''),
/* organization */ (''),
/* preprocessor_version */ 'ST-DEVELOPER v16.7',
/* originating_system */ 'SIEMENS PLM Software NX 12.0',
/* authorisation */ '');

FILE_SCHEMA (('AUTOMOTIVE_DESIGN { 1 0 10303 214 3 1 1 1 }'));
ENDSEC;

DATA;
#10=SHAPE_REPRESENTATION_RELATIONSHIP('None',
'relationship between pion_10_5_stp-None and pion_10_5_stp-None',#22,#11);
#11=ADVANCED_BREP_SHAPE_REPRESENTATION('pion_10_5_stp-None',(#39,#40),#330);
#12=SHAPE_DEFINITION_REPRESENTATION(#13,#22);
#13=PRODUCT_DEFINITION_SHAPE('','',#14);
#14=PRODUCT_DEFINITION(' ','',#16,#15);
#15=PRODUCT_DEFINITION_CONTEXT('part definition',#21,'design');
#16=PRODUCT_DEFINITION_FORMATION_WITH_SPECIFIED_SOURCE(' ',' ',#18,
 .NOT_KNOWN.);
#17=PRODUCT_RELATED_PRODUCT_CATEGORY('part','',(#18));
#18=PRODUCT('pion_10_5_stp','pion_10_5_stp',' ',(#19));
#19=PRODUCT_CONTEXT(' ',#21,'mechanical');
#20=APPLICATION_PROTOCOL_DEFINITION('international standard',
'automotive_design',2010,#21);
#21=APPLICATION_CONTEXT(
'core data for automotive mechanical design processes');
#22=SHAPE_REPRESENTATION('pion_10_5_stp-None',(#196),#330);
#23=PRESENTATION_LAYER_ASSIGNMENT('1','Layer 1',(#39,#40));
#24=STYLED_ITEM('',(#26),#39);
#25=STYLED_ITEM('',(#27),#40);
#26=PRESENTATION_STYLE_ASSIGNMENT((#28));
#27=PRESENTATION_STYLE_ASSIGNMENT((#29));
#28=SURFACE_STYLE_USAGE(.BOTH.,#30);
#29=SURFACE_STYLE_USAGE(.BOTH.,#31);
#30=SURFACE_SIDE_STYLE('',(#32));
#31=SURFACE_SIDE_STYLE('',(#33));
#32=SURFACE_STYLE_FILL_AREA(#34);
#33=SURFACE_STYLE_FILL_AREA(#35);
#34=FILL_AREA_STYLE('',(#36));
#35=FILL_AREA_STYLE('',(#37));
#36=FILL_AREA_STYLE_COLOUR('',#38);
#37=FILL_AREA_STYLE_COLOUR('',#38);
#38=COLOUR_RGB('Medium Steel',0.596063172350652,0.666666666666667,0.686259250782025);
#39=MANIFOLD_SOLID_BREP('CORPS PRINCIPAL',#41);
#40=MANIFOLD_SOLID_BREP('',#42);
#41=CLOSED_SHELL('',(#73,#74,#75,#76,#77,#78,#79,#80,#81));
#42=CLOSED_SHELL('',(#82,#83,#84,#85));
#43=CONICAL_SURFACE('',#214,0.,44.9999999999743);
#44=CONICAL_SURFACE('',#215,0.,44.9999999999743);
#45=CONICAL_SURFACE('',#222,2.4,44.9999999999999);
#46=CYLINDRICAL_SURFACE('',#205,6.);
#47=CYLINDRICAL_SURFACE('',#206,6.);
#48=CYLINDRICAL_SURFACE('',#211,5.);
#49=CYLINDRICAL_SURFACE('',#213,5.);
#50=CYLINDRICAL_SURFACE('',#218,2.5);
#51=LINE('',#298,#57);
#52=LINE('',#299,#58);
#53=LINE('',#307,#59);
#54=LINE('',#309,#60);
#55=LINE('',#315,#61);
#56=LINE('',#316,#62);
#57=VECTOR('',#241,1.);
#58=VECTOR('',#242,1.);
#59=VECTOR('',#253,1.);
#60=VECTOR('',#254,1.);
#61=VECTOR('',#263,1.);
#62=VECTOR('',#264,1.);
#63=FACE_OUTER_BOUND('',#99,.T.);
#64=FACE_OUTER_BOUND('',#100,.T.);
#65=FACE_OUTER_BOUND('',#101,.T.);
#66=FACE_OUTER_BOUND('',#102,.T.);
#67=FACE_OUTER_BOUND('',#103,.T.);
#68=FACE_OUTER_BOUND('',#104,.T.);
#69=FACE_OUTER_BOUND('',#105,.T.);
#70=FACE_OUTER_BOUND('',#106,.T.);
#71=FACE_OUTER_BOUND('',#109,.T.);
#72=FACE_OUTER_BOUND('',#110,.T.);
#73=ADVANCED_FACE('CORPS PRINCIPAL',(#91,#92),#86,.F.);
#74=ADVANCED_FACE('CORPS PRINCIPAL',(#63),#87,.T.);
#75=ADVANCED_FACE('CORPS PRINCIPAL',(#64),#46,.T.);
#76=ADVANCED_FACE('CORPS PRINCIPAL',(#65),#47,.T.);
#77=ADVANCED_FACE('CORPS PRINCIPAL',(#66),#88,.F.);
#78=ADVANCED_FACE('CORPS PRINCIPAL',(#67),#48,.T.);
#79=ADVANCED_FACE('CORPS PRINCIPAL',(#68),#49,.T.);
#80=ADVANCED_FACE('CORPS PRINCIPAL',(#69),#43,.T.);
#81=ADVANCED_FACE('CORPS PRINCIPAL',(#70),#44,.T.);
#82=ADVANCED_FACE('',(#93,#94),#50,.T.);
#83=ADVANCED_FACE('',(#71),#89,.T.);
#84=ADVANCED_FACE('',(#72),#90,.F.);
#85=ADVANCED_FACE('',(#95,#96),#45,.T.);
#86=PLANE('',#201);
#87=PLANE('',#204);
#88=PLANE('',#209);
#89=PLANE('',#220);
#90=PLANE('',#221);
#91=FACE_BOUND('',#97,.T.);
#92=FACE_BOUND('',#98,.T.);
#93=FACE_BOUND('',#107,.T.);
#94=FACE_BOUND('',#108,.T.);
#95=FACE_BOUND('',#111,.T.);
#96=FACE_BOUND('',#112,.T.);
#97=EDGE_LOOP('',(#113,#114));
#98=EDGE_LOOP('',(#115,#116));
#99=EDGE_LOOP('',(#117,#118));
#100=EDGE_LOOP('',(#119,#120,#121,#122));
#101=EDGE_LOOP('',(#123,#124,#125,#126));
#102=EDGE_LOOP('',(#127,#128));
#103=EDGE_LOOP('',(#129,#130,#131,#132));
#104=EDGE_LOOP('',(#133,#134,#135,#136));
#105=EDGE_LOOP('',(#137,#138,#139,#140));
#106=EDGE_LOOP('',(#141,#142,#143,#144));
#107=EDGE_LOOP('',(#145));
#108=EDGE_LOOP('',(#146));
#109=EDGE_LOOP('',(#147));
#110=EDGE_LOOP('',(#148));
#111=EDGE_LOOP('',(#149));
#112=EDGE_LOOP('',(#150));
#113=ORIENTED_EDGE('',*,*,#164,.F.);
#114=ORIENTED_EDGE('',*,*,#165,.F.);
#115=ORIENTED_EDGE('',*,*,#166,.T.);
#116=ORIENTED_EDGE('',*,*,#167,.T.);
#117=ORIENTED_EDGE('',*,*,#168,.T.);
#118=ORIENTED_EDGE('',*,*,#169,.T.);
#119=ORIENTED_EDGE('',*,*,#164,.T.);
#120=ORIENTED_EDGE('',*,*,#170,.F.);
#121=ORIENTED_EDGE('',*,*,#169,.F.);
#122=ORIENTED_EDGE('',*,*,#171,.T.);
#123=ORIENTED_EDGE('',*,*,#165,.T.);
#124=ORIENTED_EDGE('',*,*,#171,.F.);
#125=ORIENTED_EDGE('',*,*,#168,.F.);
#126=ORIENTED_EDGE('',*,*,#170,.T.);
#127=ORIENTED_EDGE('',*,*,#172,.F.);
#128=ORIENTED_EDGE('',*,*,#173,.F.);
#129=ORIENTED_EDGE('',*,*,#174,.T.);
#130=ORIENTED_EDGE('',*,*,#167,.F.);
#131=ORIENTED_EDGE('',*,*,#175,.F.);
#132=ORIENTED_EDGE('',*,*,#176,.T.);
#133=ORIENTED_EDGE('',*,*,#175,.T.);
#134=ORIENTED_EDGE('',*,*,#166,.F.);
#135=ORIENTED_EDGE('',*,*,#174,.F.);
#136=ORIENTED_EDGE('',*,*,#177,.T.);
#137=ORIENTED_EDGE('',*,*,#178,.F.);
#138=ORIENTED_EDGE('',*,*,#173,.T.);
#139=ORIENTED_EDGE('',*,*,#179,.T.);
#140=ORIENTED_EDGE('',*,*,#176,.F.);
#141=ORIENTED_EDGE('',*,*,#179,.F.);
#142=ORIENTED_EDGE('',*,*,#172,.T.);
#143=ORIENTED_EDGE('',*,*,#178,.T.);
#144=ORIENTED_EDGE('',*,*,#177,.F.);
#145=ORIENTED_EDGE('',*,*,#180,.T.);
#146=ORIENTED_EDGE('',*,*,#181,.T.);
#147=ORIENTED_EDGE('',*,*,#182,.T.);
#148=ORIENTED_EDGE('',*,*,#181,.F.);
#149=ORIENTED_EDGE('',*,*,#180,.F.);
#150=ORIENTED_EDGE('',*,*,#182,.F.);
#151=VERTEX_POINT('',#285);
#152=VERTEX_POINT('',#286);
#153=VERTEX_POINT('',#289);
#154=VERTEX_POINT('',#290);
#155=VERTEX_POINT('',#294);
#156=VERTEX_POINT('',#295);
#157=VERTEX_POINT('',#303);
#158=VERTEX_POINT('',#304);
#159=VERTEX_POINT('',#308);
#160=VERTEX_POINT('',#310);
#161=VERTEX_POINT('',#320);
#162=VERTEX_POINT('',#322);
#163=VERTEX_POINT('',#325);
#164=EDGE_CURVE('GENERATED CIRCLE',#151,#152,#183,.T.);
#165=EDGE_CURVE('GENERATED CIRCLE',#152,#151,#184,.T.);
#166=EDGE_CURVE('GENERATED CIRCLE',#153,#154,#185,.T.);
#167=EDGE_CURVE('GENERATED CIRCLE',#154,#153,#186,.T.);
#168=EDGE_CURVE('GENERATED CIRCLE',#155,#156,#187,.T.);
#169=EDGE_CURVE('GENERATED CIRCLE',#156,#155,#188,.T.);
#170=EDGE_CURVE('LINE',#155,#152,#51,.T.);
#171=EDGE_CURVE('LINE',#156,#151,#52,.T.);
#172=EDGE_CURVE('GENERATED CIRCLE',#157,#158,#189,.T.);
#173=EDGE_CURVE('GENERATED CIRCLE',#158,#157,#190,.T.);
#174=EDGE_CURVE('LINE',#159,#153,#53,.T.);
#175=EDGE_CURVE('LINE',#160,#154,#54,.T.);
#176=EDGE_CURVE('GENERATED CIRCLE',#160,#159,#191,.T.);
#177=EDGE_CURVE('GENERATED CIRCLE',#159,#160,#192,.T.);
#178=EDGE_CURVE('LINE',#158,#160,#55,.T.);
#179=EDGE_CURVE('LINE',#157,#159,#56,.T.);
#180=EDGE_CURVE('',#161,#161,#193,.T.);
#181=EDGE_CURVE('',#162,#162,#194,.T.);
#182=EDGE_CURVE('',#163,#163,#195,.T.);
#183=CIRCLE('',#197,6.);
#184=CIRCLE('',#198,6.);
#185=CIRCLE('',#199,5.);
#186=CIRCLE('',#200,5.);
#187=CIRCLE('',#202,6.);
#188=CIRCLE('',#203,6.);
#189=CIRCLE('',#207,4.9);
#190=CIRCLE('',#208,4.9);
#191=CIRCLE('',#210,5.);
#192=CIRCLE('',#212,5.);
#193=CIRCLE('',#216,2.5);
#194=CIRCLE('',#217,2.5);
#195=CIRCLE('',#219,2.4);
#196=AXIS2_PLACEMENT_3D('',#283,#223,#224);
#197=AXIS2_PLACEMENT_3D('',#284,#225,#226);
#198=AXIS2_PLACEMENT_3D('',#287,#227,#228);
#199=AXIS2_PLACEMENT_3D('',#288,#229,#230);
#200=AXIS2_PLACEMENT_3D('',#291,#231,#232);
#201=AXIS2_PLACEMENT_3D('',#292,#233,#234);
#202=AXIS2_PLACEMENT_3D('',#293,#235,#236);
#203=AXIS2_PLACEMENT_3D('',#296,#237,#238);
#204=AXIS2_PLACEMENT_3D('',#297,#239,#240);
#205=AXIS2_PLACEMENT_3D('',#300,#243,#244);
#206=AXIS2_PLACEMENT_3D('',#301,#245,#246);
#207=AXIS2_PLACEMENT_3D('',#302,#247,#248);
#208=AXIS2_PLACEMENT_3D('',#305,#249,#250);
#209=AXIS2_PLACEMENT_3D('',#306,#251,#252);
#210=AXIS2_PLACEMENT_3D('',#311,#255,#256);
#211=AXIS2_PLACEMENT_3D('',#312,#257,#258);
#212=AXIS2_PLACEMENT_3D('',#313,#259,#260);
#213=AXIS2_PLACEMENT_3D('',#314,#261,#262);
#214=AXIS2_PLACEMENT_3D('',#317,#265,#266);
#215=AXIS2_PLACEMENT_3D('',#318,#267,#268);
#216=AXIS2_PLACEMENT_3D('',#319,#269,#270);
#217=AXIS2_PLACEMENT_3D('',#321,#271,#272);
#218=AXIS2_PLACEMENT_3D('',#323,#273,#274);
#219=AXIS2_PLACEMENT_3D('',#324,#275,#276);
#220=AXIS2_PLACEMENT_3D('',#326,#277,#278);
#221=AXIS2_PLACEMENT_3D('',#327,#279,#280);
#222=AXIS2_PLACEMENT_3D('',#328,#281,#282);
#223=DIRECTION('',(0.,0.,1.));
#224=DIRECTION('',(1.,0.,0.));
#225=DIRECTION('',(1.,0.,0.));
#226=DIRECTION('',(0.,0.,-1.));
#227=DIRECTION('',(1.,0.,0.));
#228=DIRECTION('',(0.,0.,-1.));
#229=DIRECTION('',(1.,0.,0.));
#230=DIRECTION('',(0.,0.,-1.));
#231=DIRECTION('',(1.,0.,0.));
#232=DIRECTION('',(0.,0.,-1.));
#233=DIRECTION('',(1.,0.,0.));
#234=DIRECTION('',(0.,-1.,0.));
#235=DIRECTION('',(1.,0.,0.));
#236=DIRECTION('',(0.,0.,-1.));
#237=DIRECTION('',(1.,0.,0.));
#238=DIRECTION('',(0.,0.,-1.));
#239=DIRECTION('',(1.,0.,0.));
#240=DIRECTION('',(0.,-1.,0.));
#241=DIRECTION('',(-1.,0.,0.));
#242=DIRECTION('',(-1.,0.,0.));
#243=DIRECTION('',(1.,0.,0.));
#244=DIRECTION('',(0.,-1.,0.));
#245=DIRECTION('',(1.,0.,0.));
#246=DIRECTION('',(0.,-1.,0.));
#247=DIRECTION('',(1.,0.,0.));
#248=DIRECTION('',(0.,0.,-1.));
#249=DIRECTION('',(1.,0.,0.));
#250=DIRECTION('',(0.,0.,-1.));
#251=DIRECTION('',(1.,0.,0.));
#252=DIRECTION('',(0.,-1.,0.));
#253=DIRECTION('',(1.,0.,0.));
#254=DIRECTION('',(1.,0.,0.));
#255=DIRECTION('',(1.,0.,0.));
#256=DIRECTION('',(0.,0.,-1.));
#257=DIRECTION('',(1.,0.,0.));
#258=DIRECTION('',(0.,-1.,0.));
#259=DIRECTION('',(1.,0.,0.));
#260=DIRECTION('',(0.,0.,-1.));
#261=DIRECTION('',(1.,0.,0.));
#262=DIRECTION('',(0.,-1.,0.));
#263=DIRECTION('',(0.707106781186547,0.707106781186547,-6.34445524120594E-15));
#264=DIRECTION('',(0.707106781186547,-0.707106781186547,-6.88461491092559E-15));
#265=DIRECTION('',(1.,-4.4408920985E-15,-8.881784197E-15));
#266=DIRECTION('',(-4.45563724805042E-15,-1.,-8.88178419699999E-17));
#267=DIRECTION('',(1.,4.4408920985E-15,-1.97215226305E-30));
#268=DIRECTION('',(-2.23519119879812E-15,0.50000000000019,-0.866025403784329));
#269=DIRECTION('',(1.,0.,0.));
#270=DIRECTION('',(0.,0.,1.));
#271=DIRECTION('',(-1.,0.,0.));
#272=DIRECTION('',(0.,1.,6.12323399573677E-17));
#273=DIRECTION('',(1.,0.,0.));
#274=DIRECTION('',(0.,0.,-1.));
#275=DIRECTION('',(-1.,0.,0.));
#276=DIRECTION('',(0.,0.,1.));
#277=DIRECTION('',(-1.,0.,0.));
#278=DIRECTION('',(0.,0.,1.));
#279=DIRECTION('',(-1.,0.,0.));
#280=DIRECTION('',(0.,0.,1.));
#281=DIRECTION('',(1.,0.,0.));
#282=DIRECTION('',(-4.32642526929573E-18,0.,-1.));
#283=CARTESIAN_POINT('',(0.,0.,0.));
#284=CARTESIAN_POINT('',(1.9,0.,0.));
#285=CARTESIAN_POINT('',(1.9,-6.,7.34788079488E-16));
#286=CARTESIAN_POINT('',(1.9,6.,0.));
#287=CARTESIAN_POINT('',(1.9,0.,0.));
#288=CARTESIAN_POINT('',(1.9,0.,0.));
#289=CARTESIAN_POINT('',(1.9,-5.,6.12323399574E-16));
#290=CARTESIAN_POINT('',(1.9,5.,0.));
#291=CARTESIAN_POINT('',(1.9,0.,0.));
#292=CARTESIAN_POINT('',(1.9,0.,0.));
#293=CARTESIAN_POINT('',(11.9,0.,0.));
#294=CARTESIAN_POINT('',(11.9,6.,-1.46957615898E-15));
#295=CARTESIAN_POINT('',(11.9,-6.,7.34788079488E-16));
#296=CARTESIAN_POINT('',(11.9,0.,0.));
#297=CARTESIAN_POINT('',(11.9,0.,0.));
#298=CARTESIAN_POINT('',(6.95,6.,-1.46957615898E-15));
#299=CARTESIAN_POINT('',(6.95,-6.,7.34788079488E-16));
#300=CARTESIAN_POINT('',(6.95,0.,0.));
#301=CARTESIAN_POINT('',(6.95,0.,0.));
#302=CARTESIAN_POINT('',(0.,0.,2.0796722653E-17));
#303=CARTESIAN_POINT('',(0.,-4.9,-3.7312006023E-15));
#304=CARTESIAN_POINT('',(0.,4.9,-1.17935714051E-15));
#305=CARTESIAN_POINT('',(0.,0.,2.0796722653E-17));
#306=CARTESIAN_POINT('',(0.,0.,0.));
#307=CARTESIAN_POINT('',(0.95,-5.,6.12323399574E-16));
#308=CARTESIAN_POINT('',(0.1,-5.,6.12323399574E-16));
#309=CARTESIAN_POINT('',(0.95,5.,0.));
#310=CARTESIAN_POINT('',(0.1,5.,-5.66553889765E-15));
#311=CARTESIAN_POINT('',(0.1,0.,0.));
#312=CARTESIAN_POINT('',(0.95,0.,0.));
#313=CARTESIAN_POINT('',(0.1,0.,0.));
#314=CARTESIAN_POINT('',(0.95,0.,0.));
#315=CARTESIAN_POINT('',(0.05,4.95,-4.48620732399E-16));
#316=CARTESIAN_POINT('',(0.05,-4.95,-4.22993132969E-15));
#317=CARTESIAN_POINT('',(-4.9,2.19824158876E-14,4.39648317752E-14));
#318=CARTESIAN_POINT('',(-4.9,-2.26485497024E-14,-8.97382586979E-16));
#319=CARTESIAN_POINT('',(-4.9,0.,0.));
#320=CARTESIAN_POINT('',(-4.9,0.,2.5));
#321=CARTESIAN_POINT('',(0.,0.,0.));
#322=CARTESIAN_POINT('',(0.,2.5,1.53080849893419E-16));
#323=CARTESIAN_POINT('',(-5.,0.,0.));
#324=CARTESIAN_POINT('',(-5.,0.,0.));
#325=CARTESIAN_POINT('',(-5.,0.,2.4));
#326=CARTESIAN_POINT('',(-5.,0.,0.));
#327=CARTESIAN_POINT('',(0.,0.,0.));
#328=CARTESIAN_POINT('',(-5.,0.,0.));
#329=MECHANICAL_DESIGN_GEOMETRIC_PRESENTATION_REPRESENTATION('',(#24,#25),
#330);
#330=(
GEOMETRIC_REPRESENTATION_CONTEXT(3)
GLOBAL_UNCERTAINTY_ASSIGNED_CONTEXT((#331))
GLOBAL_UNIT_ASSIGNED_CONTEXT((#337,#333,#332))
REPRESENTATION_CONTEXT('20221005_pion_10_5','TOP_LEVEL_ASSEMBLY_PART')
);
#331=UNCERTAINTY_MEASURE_WITH_UNIT(LENGTH_MEASURE(2.E-5),#337,
'DISTANCE_ACCURACY_VALUE','Maximum Tolerance applied to model');
#332=(
NAMED_UNIT(*)
SI_UNIT($,.STERADIAN.)
SOLID_ANGLE_UNIT()
);
#333=(
CONVERSION_BASED_UNIT('DEGREE',#335)
NAMED_UNIT(#334)
PLANE_ANGLE_UNIT()
);
#334=DIMENSIONAL_EXPONENTS(0.,0.,0.,0.,0.,0.,0.);
#335=PLANE_ANGLE_MEASURE_WITH_UNIT(PLANE_ANGLE_MEASURE(0.0174532925),#336);
#336=(
NAMED_UNIT(*)
PLANE_ANGLE_UNIT()
SI_UNIT($,.RADIAN.)
);
#337=(
LENGTH_UNIT()
NAMED_UNIT(*)
SI_UNIT(.MILLI.,.METRE.)
);
ENDSEC;
END-ISO-10303-21;
