ISO-10303-21;
HEADER;
/* Generated by software containing ST-Developer
 * from STEP Tools, Inc. (www.steptools.com) 
 */

FILE_DESCRIPTION(
/* description */ (''),
/* implementation_level */ '2;1');

FILE_NAME(
/* name */ 'Support 60mm.stp',
/* time_stamp */ '2022-10-26T16:38:31+02:00',
/* author */ ('ethomas'),
/* organization */ (''),
/* preprocessor_version */ 'ST-DEVELOPER v19.2',
/* originating_system */ 'Autodesk Inventor 2023',
/* authorisation */ '');

FILE_SCHEMA (('AUTOMOTIVE_DESIGN { 1 0 10303 214 3 1 1 }'));
ENDSEC;

DATA;
#10=MECHANICAL_DESIGN_GEOMETRIC_PRESENTATION_REPRESENTATION('',(#166,#167,
#168,#169),#312);
#11=SHAPE_REPRESENTATION_RELATIONSHIP('SRR','None',#319,#12);
#12=ADVANCED_BREP_SHAPE_REPRESENTATION('',(#13),#311);
#13=MANIFOLD_SOLID_BREP('Solide2',#179);
#14=FACE_BOUND('',#43,.T.);
#15=FACE_BOUND('',#44,.T.);
#16=FACE_BOUND('',#45,.T.);
#17=FACE_BOUND('',#47,.T.);
#18=FACE_BOUND('',#48,.T.);
#19=FACE_BOUND('',#49,.T.);
#20=PLANE('',#211);
#21=PLANE('',#212);
#22=PLANE('',#213);
#23=PLANE('',#214);
#24=PLANE('',#215);
#25=PLANE('',#216);
#26=FACE_OUTER_BOUND('',#35,.T.);
#27=FACE_OUTER_BOUND('',#36,.T.);
#28=FACE_OUTER_BOUND('',#37,.T.);
#29=FACE_OUTER_BOUND('',#38,.T.);
#30=FACE_OUTER_BOUND('',#39,.T.);
#31=FACE_OUTER_BOUND('',#40,.T.);
#32=FACE_OUTER_BOUND('',#41,.T.);
#33=FACE_OUTER_BOUND('',#42,.T.);
#34=FACE_OUTER_BOUND('',#46,.T.);
#35=EDGE_LOOP('',(#121,#122,#123,#124));
#36=EDGE_LOOP('',(#125,#126,#127,#128));
#37=EDGE_LOOP('',(#129,#130,#131,#132));
#38=EDGE_LOOP('',(#133,#134,#135,#136));
#39=EDGE_LOOP('',(#137,#138,#139,#140));
#40=EDGE_LOOP('',(#141,#142,#143,#144));
#41=EDGE_LOOP('',(#145,#146,#147,#148));
#42=EDGE_LOOP('',(#149,#150,#151,#152));
#43=EDGE_LOOP('',(#153));
#44=EDGE_LOOP('',(#154));
#45=EDGE_LOOP('',(#155));
#46=EDGE_LOOP('',(#156,#157,#158,#159));
#47=EDGE_LOOP('',(#160));
#48=EDGE_LOOP('',(#161));
#49=EDGE_LOOP('',(#162));
#50=LINE('',#269,#65);
#51=LINE('',#275,#66);
#52=LINE('',#281,#67);
#53=LINE('',#286,#68);
#54=LINE('',#288,#69);
#55=LINE('',#290,#70);
#56=LINE('',#291,#71);
#57=LINE('',#294,#72);
#58=LINE('',#296,#73);
#59=LINE('',#297,#74);
#60=LINE('',#300,#75);
#61=LINE('',#302,#76);
#62=LINE('',#303,#77);
#63=LINE('',#305,#78);
#64=LINE('',#306,#79);
#65=VECTOR('',#223,3.05);
#66=VECTOR('',#230,2.5);
#67=VECTOR('',#237,2.5);
#68=VECTOR('',#242,10.);
#69=VECTOR('',#243,10.);
#70=VECTOR('',#244,10.);
#71=VECTOR('',#245,10.);
#72=VECTOR('',#248,10.);
#73=VECTOR('',#249,10.);
#74=VECTOR('',#250,10.);
#75=VECTOR('',#253,10.);
#76=VECTOR('',#254,10.);
#77=VECTOR('',#255,10.);
#78=VECTOR('',#258,10.);
#79=VECTOR('',#259,10.);
#80=CIRCLE('',#203,3.05);
#81=CIRCLE('',#204,3.05);
#82=CIRCLE('',#206,2.5);
#83=CIRCLE('',#207,2.5);
#84=CIRCLE('',#209,2.5);
#85=CIRCLE('',#210,2.5);
#86=VERTEX_POINT('',#266);
#87=VERTEX_POINT('',#268);
#88=VERTEX_POINT('',#272);
#89=VERTEX_POINT('',#274);
#90=VERTEX_POINT('',#278);
#91=VERTEX_POINT('',#280);
#92=VERTEX_POINT('',#284);
#93=VERTEX_POINT('',#285);
#94=VERTEX_POINT('',#287);
#95=VERTEX_POINT('',#289);
#96=VERTEX_POINT('',#293);
#97=VERTEX_POINT('',#295);
#98=VERTEX_POINT('',#299);
#99=VERTEX_POINT('',#301);
#100=EDGE_CURVE('',#86,#86,#80,.T.);
#101=EDGE_CURVE('',#86,#87,#50,.T.);
#102=EDGE_CURVE('',#87,#87,#81,.T.);
#103=EDGE_CURVE('',#88,#88,#82,.T.);
#104=EDGE_CURVE('',#88,#89,#51,.T.);
#105=EDGE_CURVE('',#89,#89,#83,.T.);
#106=EDGE_CURVE('',#90,#90,#84,.T.);
#107=EDGE_CURVE('',#90,#91,#52,.T.);
#108=EDGE_CURVE('',#91,#91,#85,.T.);
#109=EDGE_CURVE('',#92,#93,#53,.T.);
#110=EDGE_CURVE('',#93,#94,#54,.T.);
#111=EDGE_CURVE('',#95,#94,#55,.T.);
#112=EDGE_CURVE('',#92,#95,#56,.T.);
#113=EDGE_CURVE('',#96,#92,#57,.T.);
#114=EDGE_CURVE('',#97,#95,#58,.T.);
#115=EDGE_CURVE('',#96,#97,#59,.T.);
#116=EDGE_CURVE('',#98,#96,#60,.T.);
#117=EDGE_CURVE('',#99,#97,#61,.T.);
#118=EDGE_CURVE('',#98,#99,#62,.T.);
#119=EDGE_CURVE('',#93,#98,#63,.T.);
#120=EDGE_CURVE('',#94,#99,#64,.T.);
#121=ORIENTED_EDGE('',*,*,#100,.F.);
#122=ORIENTED_EDGE('',*,*,#101,.T.);
#123=ORIENTED_EDGE('',*,*,#102,.F.);
#124=ORIENTED_EDGE('',*,*,#101,.F.);
#125=ORIENTED_EDGE('',*,*,#103,.F.);
#126=ORIENTED_EDGE('',*,*,#104,.T.);
#127=ORIENTED_EDGE('',*,*,#105,.F.);
#128=ORIENTED_EDGE('',*,*,#104,.F.);
#129=ORIENTED_EDGE('',*,*,#106,.F.);
#130=ORIENTED_EDGE('',*,*,#107,.T.);
#131=ORIENTED_EDGE('',*,*,#108,.F.);
#132=ORIENTED_EDGE('',*,*,#107,.F.);
#133=ORIENTED_EDGE('',*,*,#109,.T.);
#134=ORIENTED_EDGE('',*,*,#110,.T.);
#135=ORIENTED_EDGE('',*,*,#111,.F.);
#136=ORIENTED_EDGE('',*,*,#112,.F.);
#137=ORIENTED_EDGE('',*,*,#113,.T.);
#138=ORIENTED_EDGE('',*,*,#112,.T.);
#139=ORIENTED_EDGE('',*,*,#114,.F.);
#140=ORIENTED_EDGE('',*,*,#115,.F.);
#141=ORIENTED_EDGE('',*,*,#116,.T.);
#142=ORIENTED_EDGE('',*,*,#115,.T.);
#143=ORIENTED_EDGE('',*,*,#117,.F.);
#144=ORIENTED_EDGE('',*,*,#118,.F.);
#145=ORIENTED_EDGE('',*,*,#119,.T.);
#146=ORIENTED_EDGE('',*,*,#118,.T.);
#147=ORIENTED_EDGE('',*,*,#120,.F.);
#148=ORIENTED_EDGE('',*,*,#110,.F.);
#149=ORIENTED_EDGE('',*,*,#120,.T.);
#150=ORIENTED_EDGE('',*,*,#117,.T.);
#151=ORIENTED_EDGE('',*,*,#114,.T.);
#152=ORIENTED_EDGE('',*,*,#111,.T.);
#153=ORIENTED_EDGE('',*,*,#100,.T.);
#154=ORIENTED_EDGE('',*,*,#103,.T.);
#155=ORIENTED_EDGE('',*,*,#106,.T.);
#156=ORIENTED_EDGE('',*,*,#119,.F.);
#157=ORIENTED_EDGE('',*,*,#109,.F.);
#158=ORIENTED_EDGE('',*,*,#113,.F.);
#159=ORIENTED_EDGE('',*,*,#116,.F.);
#160=ORIENTED_EDGE('',*,*,#102,.T.);
#161=ORIENTED_EDGE('',*,*,#105,.T.);
#162=ORIENTED_EDGE('',*,*,#108,.T.);
#163=CYLINDRICAL_SURFACE('',#202,3.05);
#164=CYLINDRICAL_SURFACE('',#205,2.5);
#165=CYLINDRICAL_SURFACE('',#208,2.5);
#166=STYLED_ITEM('',(#329),#170);
#167=STYLED_ITEM('',(#329),#171);
#168=STYLED_ITEM('',(#329),#172);
#169=STYLED_ITEM('',(#328),#13);
#170=ADVANCED_FACE('',(#26),#163,.F.);
#171=ADVANCED_FACE('',(#27),#164,.F.);
#172=ADVANCED_FACE('',(#28),#165,.F.);
#173=ADVANCED_FACE('',(#29),#20,.T.);
#174=ADVANCED_FACE('',(#30),#21,.T.);
#175=ADVANCED_FACE('',(#31),#22,.T.);
#176=ADVANCED_FACE('',(#32),#23,.T.);
#177=ADVANCED_FACE('',(#33,#14,#15,#16),#24,.T.);
#178=ADVANCED_FACE('',(#34,#17,#18,#19),#25,.F.);
#179=CLOSED_SHELL('',(#170,#171,#172,#173,#174,#175,#176,#177,#178));
#180=DERIVED_UNIT_ELEMENT(#183,1.);
#181=DERIVED_UNIT_ELEMENT(#314,-3.);
#182=DIMENSIONAL_EXPONENTS(0.,1.,0.,0.,0.,0.,0.);
#183=(
CONVERSION_BASED_UNIT('gram',#185)
MASS_UNIT()
NAMED_UNIT(#182)
);
#184=(
MASS_UNIT()
NAMED_UNIT(*)
SI_UNIT(.KILO.,.GRAM.)
);
#185=MASS_MEASURE_WITH_UNIT(MASS_MEASURE(0.001),#184);
#186=DERIVED_UNIT((#180,#181));
#187=MEASURE_REPRESENTATION_ITEM('density measure',
POSITIVE_RATIO_MEASURE(7.85),#186);
#188=PROPERTY_DEFINITION_REPRESENTATION(#193,#190);
#189=PROPERTY_DEFINITION_REPRESENTATION(#194,#191);
#190=REPRESENTATION('material name',(#192),#311);
#191=REPRESENTATION('density',(#187),#311);
#192=DESCRIPTIVE_REPRESENTATION_ITEM('Acier','Acier');
#193=PROPERTY_DEFINITION('material property','material name',#321);
#194=PROPERTY_DEFINITION('material property','density of part',#321);
#195=DATE_TIME_ROLE('creation_date');
#196=APPLIED_DATE_AND_TIME_ASSIGNMENT(#197,#195,(#321));
#197=DATE_AND_TIME(#198,#199);
#198=CALENDAR_DATE(2022,30,9);
#199=LOCAL_TIME(0,0,0.,#200);
#200=COORDINATED_UNIVERSAL_TIME_OFFSET(0,0,.BEHIND.);
#201=AXIS2_PLACEMENT_3D('placement',#264,#217,#218);
#202=AXIS2_PLACEMENT_3D('',#265,#219,#220);
#203=AXIS2_PLACEMENT_3D('',#267,#221,#222);
#204=AXIS2_PLACEMENT_3D('',#270,#224,#225);
#205=AXIS2_PLACEMENT_3D('',#271,#226,#227);
#206=AXIS2_PLACEMENT_3D('',#273,#228,#229);
#207=AXIS2_PLACEMENT_3D('',#276,#231,#232);
#208=AXIS2_PLACEMENT_3D('',#277,#233,#234);
#209=AXIS2_PLACEMENT_3D('',#279,#235,#236);
#210=AXIS2_PLACEMENT_3D('',#282,#238,#239);
#211=AXIS2_PLACEMENT_3D('',#283,#240,#241);
#212=AXIS2_PLACEMENT_3D('',#292,#246,#247);
#213=AXIS2_PLACEMENT_3D('',#298,#251,#252);
#214=AXIS2_PLACEMENT_3D('',#304,#256,#257);
#215=AXIS2_PLACEMENT_3D('',#307,#260,#261);
#216=AXIS2_PLACEMENT_3D('',#308,#262,#263);
#217=DIRECTION('axis',(0.,0.,1.));
#218=DIRECTION('refdir',(1.,0.,0.));
#219=DIRECTION('center_axis',(0.,0.,1.));
#220=DIRECTION('ref_axis',(1.,0.,0.));
#221=DIRECTION('center_axis',(0.,0.,-1.));
#222=DIRECTION('ref_axis',(1.,0.,0.));
#223=DIRECTION('',(0.,0.,-1.));
#224=DIRECTION('center_axis',(0.,0.,1.));
#225=DIRECTION('ref_axis',(1.,0.,0.));
#226=DIRECTION('center_axis',(0.,0.,1.));
#227=DIRECTION('ref_axis',(1.,0.,0.));
#228=DIRECTION('center_axis',(0.,0.,-1.));
#229=DIRECTION('ref_axis',(1.,0.,0.));
#230=DIRECTION('',(0.,0.,-1.));
#231=DIRECTION('center_axis',(0.,0.,1.));
#232=DIRECTION('ref_axis',(1.,0.,0.));
#233=DIRECTION('center_axis',(0.,0.,1.));
#234=DIRECTION('ref_axis',(1.,0.,0.));
#235=DIRECTION('center_axis',(0.,0.,-1.));
#236=DIRECTION('ref_axis',(1.,0.,0.));
#237=DIRECTION('',(0.,0.,-1.));
#238=DIRECTION('center_axis',(0.,0.,1.));
#239=DIRECTION('ref_axis',(1.,0.,0.));
#240=DIRECTION('center_axis',(-1.,-4.22942104619107E-16,0.));
#241=DIRECTION('ref_axis',(4.22942104619107E-16,-1.,0.));
#242=DIRECTION('',(4.22942104619107E-16,-1.,0.));
#243=DIRECTION('',(0.,0.,1.));
#244=DIRECTION('',(4.22942104619107E-16,-1.,0.));
#245=DIRECTION('',(0.,0.,1.));
#246=DIRECTION('center_axis',(0.,1.,0.));
#247=DIRECTION('ref_axis',(-1.,0.,0.));
#248=DIRECTION('',(-1.,0.,0.));
#249=DIRECTION('',(-1.,0.,0.));
#250=DIRECTION('',(0.,0.,1.));
#251=DIRECTION('center_axis',(1.,0.,0.));
#252=DIRECTION('ref_axis',(0.,1.,0.));
#253=DIRECTION('',(0.,1.,0.));
#254=DIRECTION('',(0.,1.,0.));
#255=DIRECTION('',(0.,0.,1.));
#256=DIRECTION('center_axis',(-1.77635683940025E-16,-1.,0.));
#257=DIRECTION('ref_axis',(1.,-1.77635683940025E-16,0.));
#258=DIRECTION('',(1.,-1.77635683940025E-16,0.));
#259=DIRECTION('',(1.,-1.77635683940025E-16,0.));
#260=DIRECTION('center_axis',(0.,0.,1.));
#261=DIRECTION('ref_axis',(1.,0.,0.));
#262=DIRECTION('center_axis',(0.,0.,1.));
#263=DIRECTION('ref_axis',(1.,0.,0.));
#264=CARTESIAN_POINT('',(0.,0.,0.));
#265=CARTESIAN_POINT('Origin',(0.,0.,-20.876448982383));
#266=CARTESIAN_POINT('',(-3.05,-3.73517273739943E-16,60.));
#267=CARTESIAN_POINT('Origin',(0.,0.,60.));
#268=CARTESIAN_POINT('',(-3.05,-3.73517273739943E-16,0.));
#269=CARTESIAN_POINT('',(-3.05,-3.73517273739943E-16,-20.876448982383));
#270=CARTESIAN_POINT('Origin',(0.,0.,0.));
#271=CARTESIAN_POINT('Origin',(17.,0.,-20.876448982383));
#272=CARTESIAN_POINT('',(14.5,-3.06161699786838E-16,60.));
#273=CARTESIAN_POINT('Origin',(17.,0.,60.));
#274=CARTESIAN_POINT('',(14.5,-3.06161699786838E-16,0.));
#275=CARTESIAN_POINT('',(14.5,-3.06161699786838E-16,-20.876448982383));
#276=CARTESIAN_POINT('Origin',(17.,0.,0.));
#277=CARTESIAN_POINT('Origin',(-17.,-7.19001577852483E-15,-20.876448982383));
#278=CARTESIAN_POINT('',(-19.5,-7.49617747831166E-15,60.));
#279=CARTESIAN_POINT('Origin',(-17.,-7.19001577852483E-15,60.));
#280=CARTESIAN_POINT('',(-19.5,-7.49617747831166E-15,0.));
#281=CARTESIAN_POINT('',(-19.5,-7.49617747831166E-15,-20.876448982383));
#282=CARTESIAN_POINT('Origin',(-17.,-7.19001577852483E-15,0.));
#283=CARTESIAN_POINT('Origin',(-25.,10.5,0.));
#284=CARTESIAN_POINT('',(-25.,10.5,0.));
#285=CARTESIAN_POINT('',(-25.,-10.5,0.));
#286=CARTESIAN_POINT('',(-25.,10.5,0.));
#287=CARTESIAN_POINT('',(-25.,-10.5,60.));
#288=CARTESIAN_POINT('',(-25.,-10.5,0.));
#289=CARTESIAN_POINT('',(-25.,10.5,60.));
#290=CARTESIAN_POINT('',(-25.,10.5,60.));
#291=CARTESIAN_POINT('',(-25.,10.5,0.));
#292=CARTESIAN_POINT('Origin',(25.,10.5,0.));
#293=CARTESIAN_POINT('',(25.,10.5,0.));
#294=CARTESIAN_POINT('',(25.,10.5,0.));
#295=CARTESIAN_POINT('',(25.,10.5,60.));
#296=CARTESIAN_POINT('',(25.,10.5,60.));
#297=CARTESIAN_POINT('',(25.,10.5,0.));
#298=CARTESIAN_POINT('Origin',(25.,-10.5,0.));
#299=CARTESIAN_POINT('',(25.,-10.5,0.));
#300=CARTESIAN_POINT('',(25.,-10.5,0.));
#301=CARTESIAN_POINT('',(25.,-10.5,60.));
#302=CARTESIAN_POINT('',(25.,-10.5,60.));
#303=CARTESIAN_POINT('',(25.,-10.5,0.));
#304=CARTESIAN_POINT('Origin',(-25.,-10.5,0.));
#305=CARTESIAN_POINT('',(-25.,-10.5,0.));
#306=CARTESIAN_POINT('',(-25.,-10.5,60.));
#307=CARTESIAN_POINT('Origin',(-4.44089209850063E-15,0.,60.));
#308=CARTESIAN_POINT('Origin',(-4.44089209850063E-15,0.,0.));
#309=UNCERTAINTY_MEASURE_WITH_UNIT(LENGTH_MEASURE(0.01),#313,
'DISTANCE_ACCURACY_VALUE',
'Maximum model space distance between geometric entities at asserted c
onnectivities');
#310=UNCERTAINTY_MEASURE_WITH_UNIT(LENGTH_MEASURE(0.01),#313,
'DISTANCE_ACCURACY_VALUE',
'Maximum model space distance between geometric entities at asserted c
onnectivities');
#311=(
GEOMETRIC_REPRESENTATION_CONTEXT(3)
GLOBAL_UNCERTAINTY_ASSIGNED_CONTEXT((#309))
GLOBAL_UNIT_ASSIGNED_CONTEXT((#313,#315,#316))
REPRESENTATION_CONTEXT('','3D')
);
#312=(
GEOMETRIC_REPRESENTATION_CONTEXT(3)
GLOBAL_UNCERTAINTY_ASSIGNED_CONTEXT((#310))
GLOBAL_UNIT_ASSIGNED_CONTEXT((#313,#315,#316))
REPRESENTATION_CONTEXT('','3D')
);
#313=(
LENGTH_UNIT()
NAMED_UNIT(*)
SI_UNIT(.MILLI.,.METRE.)
);
#314=(
LENGTH_UNIT()
NAMED_UNIT(*)
SI_UNIT(.CENTI.,.METRE.)
);
#315=(
NAMED_UNIT(*)
PLANE_ANGLE_UNIT()
SI_UNIT($,.RADIAN.)
);
#316=(
NAMED_UNIT(*)
SI_UNIT($,.STERADIAN.)
SOLID_ANGLE_UNIT()
);
#317=SHAPE_DEFINITION_REPRESENTATION(#318,#319);
#318=PRODUCT_DEFINITION_SHAPE('',$,#321);
#319=SHAPE_REPRESENTATION('',(#201),#311);
#320=PRODUCT_DEFINITION_CONTEXT('part definition',#325,'design');
#321=PRODUCT_DEFINITION('Support 60mm','Support 60mm',#322,#320);
#322=PRODUCT_DEFINITION_FORMATION('',$,#327);
#323=PRODUCT_RELATED_PRODUCT_CATEGORY('Support 60mm','Support 60mm',(#327));
#324=APPLICATION_PROTOCOL_DEFINITION('international standard',
'automotive_design',2009,#325);
#325=APPLICATION_CONTEXT(
'Core Data for Automotive Mechanical Design Process');
#326=PRODUCT_CONTEXT('part definition',#325,'mechanical');
#327=PRODUCT('Support 60mm','Support 60mm',$,(#326));
#328=PRESENTATION_STYLE_ASSIGNMENT((#330));
#329=PRESENTATION_STYLE_ASSIGNMENT((#331));
#330=SURFACE_STYLE_USAGE(.BOTH.,#334);
#331=SURFACE_STYLE_USAGE(.BOTH.,#335);
#332=SURFACE_STYLE_RENDERING_WITH_PROPERTIES($,#342,(#333));
#333=SURFACE_STYLE_TRANSPARENT(0.);
#334=SURFACE_SIDE_STYLE('',(#336,#332));
#335=SURFACE_SIDE_STYLE('',(#337));
#336=SURFACE_STYLE_FILL_AREA(#338);
#337=SURFACE_STYLE_FILL_AREA(#339);
#338=FILL_AREA_STYLE('',(#340));
#339=FILL_AREA_STYLE('',(#341));
#340=FILL_AREA_STYLE_COLOUR('',#342);
#341=FILL_AREA_STYLE_COLOUR('',#343);
#342=COLOUR_RGB('',0.8,0.,0.);
#343=COLOUR_RGB('',0.603921568627451,0.603921568627451,0.627450980392157);
ENDSEC;
END-ISO-10303-21;
