ISO-10303-21;
HEADER;

/* File generated by Shapr3D Version 3.0 */

FILE_DESCRIPTION(('HOOPS Exchange Step'),'2;1');

FILE_NAME('/private/var/mobile/Containers/Data/Application/7CA9332C-698D-4CFC-B30B-583F93309C45/tmp/export/temp_export',
'2022-09-28T22:58:33+02:00',
('mobile'),
('Shapr3D Limited'),
'HOOPS Exchange 2022.1',
'Shapr3D',
'Authorized');

FILE_SCHEMA( ('AP203_CONFIGURATION_CONTROLLED_3D_DESIGN_OF_MECHANICAL_PARTS_AND_ASSEMBLIES_MIM_LF') );

ENDSEC;

DATA;
#3=(NAMED_UNIT(*)PLANE_ANGLE_UNIT()SI_UNIT($,.RADIAN.));
#4=PLANE_ANGLE_MEASURE_WITH_UNIT(PLANE_ANGLE_MEASURE(0.0174532925),#3);
#5=(CONVERSION_BASED_UNIT('DEGREE',#4)NAMED_UNIT(#6)PLANE_ANGLE_UNIT());
#6=DIMENSIONAL_EXPONENTS(0.,0.,0.,0.,0.,0.,0.);
#7=(NAMED_UNIT(*)SI_UNIT($,.STERADIAN.)SOLID_ANGLE_UNIT());
#8=(LENGTH_UNIT()NAMED_UNIT(*)SI_UNIT(.MILLI.,.METRE.));
#9=UNCERTAINTY_MEASURE_WITH_UNIT(LENGTH_MEASURE(1.000000E-05),#8,'DISTANCE_ACCURACY_VALUE','Maximum Tolerance applied to model');
#10=(GEOMETRIC_REPRESENTATION_CONTEXT(3)GLOBAL_UNCERTAINTY_ASSIGNED_CONTEXT((#9))GLOBAL_UNIT_ASSIGNED_CONTEXT((#8,#5,#7))REPRESENTATION_CONTEXT('','root'));
#12=CARTESIAN_POINT('',(0.,0.,0.));
#13=DIRECTION('',(0.,0.,1.));
#14=DIRECTION('',(1.,0.,0.));
#15=AXIS2_PLACEMENT_3D('TS3D_PRODUCT_CSYS',#12,#13,#14);
#27=CARTESIAN_POINT('',(100.,60.,16.));
#28=DIRECTION('',(-1.,0.,0.));
#29=DIRECTION('',(0.,0.,1.));
#30=AXIS2_PLACEMENT_3D('',#27,#28,#29);
#31=PLANE('',#30);
#32=CARTESIAN_POINT('',(100.,58.206822011,18.851795076));
#33=VERTEX_POINT('',#32);
#34=CARTESIAN_POINT('',(100.,51.902588936,18.009558465));
#35=VERTEX_POINT('',#34);
#36=CARTESIAN_POINT('',(100.,58.206822011,18.851795076));
#37=DIRECTION('',(0.,-0.991193424,-0.132422038));
#38=VECTOR('',#37,6.360245056);
#39=LINE('',#36,#38);
#40=EDGE_CURVE('',#33,#35,#39,.T.);
#41=ORIENTED_EDGE('',*,*,#40,.T.);
#42=CARTESIAN_POINT('',(100.,48.756270765,16.293324887));
#43=VERTEX_POINT('',#42);
#44=CARTESIAN_POINT('',(100.,52.564699125,13.053591344));
#45=DIRECTION('',(1.,-0.,-0.));
#46=DIRECTION('',(0.,0.,1.));
#47=AXIS2_PLACEMENT_3D('',#44,#45,#46);
#48=CIRCLE('',#47,5.);
#49=EDGE_CURVE('',#35,#43,#48,.T.);
#50=ORIENTED_EDGE('',*,*,#49,.T.);
#51=CARTESIAN_POINT('',(100.,40.,6.));
#52=VERTEX_POINT('',#51);
#53=CARTESIAN_POINT('',(100.,40.,6.));
#54=DIRECTION('',(0.,0.647946709,0.761685672));
#55=VECTOR('',#54,13.513874905);
#56=LINE('',#53,#55);
#57=EDGE_CURVE('',#52,#43,#56,.T.);
#58=ORIENTED_EDGE('',*,*,#57,.F.);
#59=CARTESIAN_POINT('',(100.,40.,0.));
#60=VERTEX_POINT('',#59);
#61=CARTESIAN_POINT('',(100.,40.,0.));
#62=DIRECTION('',(0.,0.,1.));
#63=VECTOR('',#62,6.);
#64=LINE('',#61,#63);
#65=EDGE_CURVE('',#60,#52,#64,.T.);
#66=ORIENTED_EDGE('',*,*,#65,.F.);
#67=CARTESIAN_POINT('',(100.,70.,0.));
#68=VERTEX_POINT('',#67);
#69=CARTESIAN_POINT('',(100.,40.,0.));
#70=DIRECTION('',(0.,1.,0.));
#71=VECTOR('',#70,30.);
#72=LINE('',#69,#71);
#73=EDGE_CURVE('',#60,#68,#72,.T.);
#74=ORIENTED_EDGE('',*,*,#73,.T.);
#75=CARTESIAN_POINT('',(100.,70.,6.));
#76=VERTEX_POINT('',#75);
#77=CARTESIAN_POINT('',(100.,70.,6.));
#78=DIRECTION('',(0.,0.,-1.));
#79=VECTOR('',#78,6.);
#80=LINE('',#77,#79);
#81=EDGE_CURVE('',#76,#68,#80,.T.);
#82=ORIENTED_EDGE('',*,*,#81,.F.);
#83=CARTESIAN_POINT('',(100.,61.991444776,17.211977314));
#84=VERTEX_POINT('',#83);
#85=CARTESIAN_POINT('',(100.,61.991444776,17.211977314));
#86=DIRECTION('',(0.,0.581238194,-0.813733471));
#87=VECTOR('',#86,13.778439392);
#88=LINE('',#85,#87);
#89=EDGE_CURVE('',#84,#76,#88,.T.);
#90=ORIENTED_EDGE('',*,*,#89,.F.);
#91=CARTESIAN_POINT('',(100.,58.736512888,18.887021744));
#92=VERTEX_POINT('',#91);
#93=CARTESIAN_POINT('',(100.,58.736512888,14.887021744));
#94=DIRECTION('',(1.,-0.,-0.));
#95=DIRECTION('',(0.,0.,1.));
#96=AXIS2_PLACEMENT_3D('',#93,#94,#95);
#97=CIRCLE('',#96,4.);
#98=EDGE_CURVE('',#84,#92,#97,.T.);
#99=ORIENTED_EDGE('',*,*,#98,.T.);
#100=CARTESIAN_POINT('',(100.,58.736512888,14.887021744));
#101=DIRECTION('',(1.,-0.,-0.));
#102=DIRECTION('',(0.,0.,1.));
#103=AXIS2_PLACEMENT_3D('',#100,#101,#102);
#104=CIRCLE('',#103,4.);
#105=EDGE_CURVE('',#92,#33,#104,.T.);
#106=ORIENTED_EDGE('',*,*,#105,.T.);
#107=EDGE_LOOP('',(#41,#50,#58,#66,#74,#82,#90,#99,#106));
#108=FACE_BOUND('',#107,.T.);
#109=ADVANCED_FACE('',(#108),#31,.F.);
#110=CARTESIAN_POINT('',(50.,70.,16.));
#111=DIRECTION('',(0.,-1.,0.));
#112=DIRECTION('',(0.,0.,-1.));
#113=AXIS2_PLACEMENT_3D('',#110,#111,#112);
#114=PLANE('',#113);
#115=CARTESIAN_POINT('',(0.,70.,6.));
#116=VERTEX_POINT('',#115);
#117=CARTESIAN_POINT('',(100.,70.,6.));
#118=DIRECTION('',(-1.,0.,0.));
#119=VECTOR('',#118,100.);
#120=LINE('',#117,#119);
#121=EDGE_CURVE('',#76,#116,#120,.T.);
#122=ORIENTED_EDGE('',*,*,#121,.F.);
#123=ORIENTED_EDGE('',*,*,#81,.T.);
#124=CARTESIAN_POINT('',(0.,70.,0.));
#125=VERTEX_POINT('',#124);
#126=CARTESIAN_POINT('',(100.,70.,0.));
#127=DIRECTION('',(-1.,0.,0.));
#128=VECTOR('',#127,100.);
#129=LINE('',#126,#128);
#130=EDGE_CURVE('',#68,#125,#129,.T.);
#131=ORIENTED_EDGE('',*,*,#130,.T.);
#132=CARTESIAN_POINT('',(0.,70.,6.));
#133=DIRECTION('',(0.,0.,-1.));
#134=VECTOR('',#133,6.);
#135=LINE('',#132,#134);
#136=EDGE_CURVE('',#116,#125,#135,.T.);
#137=ORIENTED_EDGE('',*,*,#136,.F.);
#138=EDGE_LOOP('',(#122,#123,#131,#137));
#139=FACE_BOUND('',#138,.T.);
#140=ADVANCED_FACE('',(#139),#114,.F.);
#141=CARTESIAN_POINT('',(0.,0.,16.));
#142=DIRECTION('',(1.,0.,0.));
#143=DIRECTION('',(0.,0.,-1.));
#144=AXIS2_PLACEMENT_3D('',#141,#142,#143);
#145=PLANE('',#144);
#146=CARTESIAN_POINT('',(0.,40.,6.));
#147=VERTEX_POINT('',#146);
#148=CARTESIAN_POINT('',(0.,48.756270765,16.293324887));
#149=VERTEX_POINT('',#148);
#150=CARTESIAN_POINT('',(0.,40.,6.));
#151=DIRECTION('',(0.,0.647946709,0.761685672));
#152=VECTOR('',#151,13.513874905);
#153=LINE('',#150,#152);
#154=EDGE_CURVE('',#147,#149,#153,.T.);
#155=ORIENTED_EDGE('',*,*,#154,.T.);
#156=CARTESIAN_POINT('',(0.,51.902588936,18.009558465));
#157=VERTEX_POINT('',#156);
#158=CARTESIAN_POINT('',(0.,52.564699125,13.053591344));
#159=DIRECTION('',(-1.,-0.,-0.));
#160=DIRECTION('',(0.,0.,-1.));
#161=AXIS2_PLACEMENT_3D('',#158,#159,#160);
#162=CIRCLE('',#161,5.);
#163=EDGE_CURVE('',#149,#157,#162,.T.);
#164=ORIENTED_EDGE('',*,*,#163,.T.);
#165=CARTESIAN_POINT('',(0.,58.206822011,18.851795076));
#166=VERTEX_POINT('',#165);
#167=CARTESIAN_POINT('',(0.,58.206822011,18.851795076));
#168=DIRECTION('',(0.,-0.991193424,-0.132422038));
#169=VECTOR('',#168,6.360245056);
#170=LINE('',#167,#169);
#171=EDGE_CURVE('',#166,#157,#170,.T.);
#172=ORIENTED_EDGE('',*,*,#171,.F.);
#173=CARTESIAN_POINT('',(0.,58.736512888,18.887021744));
#174=VERTEX_POINT('',#173);
#175=CARTESIAN_POINT('',(0.,58.736512888,14.887021744));
#176=DIRECTION('',(-1.,-0.,-0.));
#177=DIRECTION('',(0.,0.,-1.));
#178=AXIS2_PLACEMENT_3D('',#175,#176,#177);
#179=CIRCLE('',#178,4.);
#180=EDGE_CURVE('',#166,#174,#179,.T.);
#181=ORIENTED_EDGE('',*,*,#180,.T.);
#182=CARTESIAN_POINT('',(0.,61.991444776,17.211977314));
#183=VERTEX_POINT('',#182);
#184=CARTESIAN_POINT('',(0.,58.736512888,14.887021744));
#185=DIRECTION('',(-1.,-0.,-0.));
#186=DIRECTION('',(0.,0.,-1.));
#187=AXIS2_PLACEMENT_3D('',#184,#185,#186);
#188=CIRCLE('',#187,4.);
#189=EDGE_CURVE('',#174,#183,#188,.T.);
#190=ORIENTED_EDGE('',*,*,#189,.T.);
#191=CARTESIAN_POINT('',(0.,61.991444776,17.211977314));
#192=DIRECTION('',(0.,0.581238194,-0.813733471));
#193=VECTOR('',#192,13.778439392);
#194=LINE('',#191,#193);
#195=EDGE_CURVE('',#183,#116,#194,.T.);
#196=ORIENTED_EDGE('',*,*,#195,.T.);
#197=ORIENTED_EDGE('',*,*,#136,.T.);
#198=CARTESIAN_POINT('',(0.,40.,0.));
#199=VERTEX_POINT('',#198);
#200=CARTESIAN_POINT('',(0.,70.,0.));
#201=DIRECTION('',(-0.,-1.,-0.));
#202=VECTOR('',#201,30.);
#203=LINE('',#200,#202);
#204=EDGE_CURVE('',#125,#199,#203,.T.);
#205=ORIENTED_EDGE('',*,*,#204,.T.);
#206=CARTESIAN_POINT('',(0.,40.,0.));
#207=DIRECTION('',(0.,0.,1.));
#208=VECTOR('',#207,6.);
#209=LINE('',#206,#208);
#210=EDGE_CURVE('',#199,#147,#209,.T.);
#211=ORIENTED_EDGE('',*,*,#210,.T.);
#212=EDGE_LOOP('',(#155,#164,#172,#181,#190,#196,#197,#205,#211));
#213=FACE_BOUND('',#212,.T.);
#214=ADVANCED_FACE('',(#213),#145,.F.);
#215=CARTESIAN_POINT('',(0.,0.,0.));
#216=DIRECTION('',(0.,0.,1.));
#217=DIRECTION('',(1.,0.,0.));
#218=AXIS2_PLACEMENT_3D('',#215,#216,#217);
#219=PLANE('',#218);
#220=ORIENTED_EDGE('',*,*,#73,.F.);
#221=CARTESIAN_POINT('',(100.,40.,0.));
#222=DIRECTION('',(-1.,0.,0.));
#223=VECTOR('',#222,100.);
#224=LINE('',#221,#223);
#225=EDGE_CURVE('',#60,#199,#224,.T.);
#226=ORIENTED_EDGE('',*,*,#225,.T.);
#227=ORIENTED_EDGE('',*,*,#204,.F.);
#228=ORIENTED_EDGE('',*,*,#130,.F.);
#229=EDGE_LOOP('',(#220,#226,#227,#228));
#230=FACE_BOUND('',#229,.T.);
#231=ADVANCED_FACE('',(#230),#219,.F.);
#232=CARTESIAN_POINT('',(100.,55.255133738,18.457453703));
#233=DIRECTION('',(0.,0.132422038,-0.991193424));
#234=DIRECTION('',(0.,0.991193424,0.132422038));
#235=AXIS2_PLACEMENT_3D('',#232,#233,#234);
#236=PLANE('',#235);
#237=CARTESIAN_POINT('',(12.000004947,52.026284214,18.026083979));
#238=VERTEX_POINT('',#237);
#239=CARTESIAN_POINT('',(88.000004947,52.026284214,18.026083979));
#240=VERTEX_POINT('',#239);
#241=CARTESIAN_POINT('',(12.000004947,52.026284214,18.026083979));
#242=DIRECTION('',(1.,0.,0.));
#243=VECTOR('',#242,76.);
#244=LINE('',#241,#243);
#245=EDGE_CURVE('',#238,#240,#244,.T.);
#246=ORIENTED_EDGE('',*,*,#245,.F.);
#247=CARTESIAN_POINT('',(12.000004947,56.486654623,18.621983149));
#248=VERTEX_POINT('',#247);
#249=CARTESIAN_POINT('',(12.000004947,56.486654623,18.621983149));
#250=DIRECTION('',(0.,-0.991193424,-0.132422038));
#251=VECTOR('',#250,4.5);
#252=LINE('',#249,#251);
#253=EDGE_CURVE('',#248,#238,#252,.T.);
#254=ORIENTED_EDGE('',*,*,#253,.F.);
#255=CARTESIAN_POINT('',(88.000004947,56.486654623,18.621983149));
#256=VERTEX_POINT('',#255);
#257=CARTESIAN_POINT('',(12.000004947,56.486654623,18.621983149));
#258=DIRECTION('',(1.,0.,0.));
#259=VECTOR('',#258,76.);
#260=LINE('',#257,#259);
#261=EDGE_CURVE('',#248,#256,#260,.T.);
#262=ORIENTED_EDGE('',*,*,#261,.T.);
#263=CARTESIAN_POINT('',(88.000004947,52.026284214,18.026083979));
#264=DIRECTION('',(0.,0.991193424,0.132422038));
#265=VECTOR('',#264,4.5);
#266=LINE('',#263,#265);
#267=EDGE_CURVE('',#240,#256,#266,.T.);
#268=ORIENTED_EDGE('',*,*,#267,.F.);
#269=EDGE_LOOP('',(#246,#254,#262,#268));
#270=FACE_BOUND('',#269,.T.);
#271=ORIENTED_EDGE('',*,*,#171,.T.);
#272=CARTESIAN_POINT('',(0.,51.902588936,18.009558465));
#273=DIRECTION('',(1.,-0.,-0.));
#274=VECTOR('',#273,100.);
#275=LINE('',#272,#274);
#276=EDGE_CURVE('',#157,#35,#275,.T.);
#277=ORIENTED_EDGE('',*,*,#276,.T.);
#278=ORIENTED_EDGE('',*,*,#40,.F.);
#279=CARTESIAN_POINT('',(100.,58.206824736,18.85179544));
#280=DIRECTION('',(-1.,-0.,0.));
#281=VECTOR('',#280,100.);
#282=LINE('',#279,#281);
#283=EDGE_CURVE('',#33,#166,#282,.T.);
#284=ORIENTED_EDGE('',*,*,#283,.T.);
#285=EDGE_LOOP('',(#271,#277,#278,#284));
#286=FACE_BOUND('',#285,.T.);
#287=ADVANCED_FACE('',(#270,#286),#236,.F.);
#288=CARTESIAN_POINT('',(0.,49.189189189,35.135135135));
#289=DIRECTION('',(0.,0.813733471,0.581238194));
#290=DIRECTION('',(0.,-0.581238194,0.813733471));
#291=AXIS2_PLACEMENT_3D('',#288,#289,#290);
#292=PLANE('',#291);
#293=ORIENTED_EDGE('',*,*,#195,.F.);
#294=CARTESIAN_POINT('',(0.,61.991446772,17.211974519));
#295=DIRECTION('',(1.,0.,-0.));
#296=VECTOR('',#295,100.);
#297=LINE('',#294,#296);
#298=EDGE_CURVE('',#183,#84,#297,.T.);
#299=ORIENTED_EDGE('',*,*,#298,.T.);
#300=ORIENTED_EDGE('',*,*,#89,.T.);
#301=ORIENTED_EDGE('',*,*,#121,.T.);
#302=EDGE_LOOP('',(#293,#299,#300,#301));
#303=FACE_BOUND('',#302,.T.);
#304=ADVANCED_FACE('',(#303),#292,.T.);
#305=CARTESIAN_POINT('',(0.,58.736512888,14.887021744));
#306=DIRECTION('',(-1.,0.,0.));
#307=DIRECTION('',(0.,0.,1.));
#308=AXIS2_PLACEMENT_3D('',#305,#306,#307);
#309=CYLINDRICAL_SURFACE('',#308,4.);
#310=CARTESIAN_POINT('',(0.,58.736512888,18.887021744));
#311=DIRECTION('',(1.,-0.,-0.));
#312=VECTOR('',#311,100.);
#313=LINE('',#310,#312);
#314=EDGE_CURVE('',#174,#92,#313,.T.);
#315=ORIENTED_EDGE('',*,*,#314,.T.);
#316=ORIENTED_EDGE('',*,*,#98,.F.);
#317=ORIENTED_EDGE('',*,*,#298,.F.);
#318=ORIENTED_EDGE('',*,*,#189,.F.);
#319=EDGE_LOOP('',(#315,#316,#317,#318));
#320=FACE_BOUND('',#319,.T.);
#321=ADVANCED_FACE('',(#320),#309,.T.);
#322=CARTESIAN_POINT('',(12.000004947,54.78615757,14.359259868));
#323=DIRECTION('',(-1.,-0.,-0.));
#324=DIRECTION('',(0.,-0.991444861,0.130526192));
#325=AXIS2_PLACEMENT_3D('',#322,#323,#324);
#326=PLANE('',#325);
#327=ORIENTED_EDGE('',*,*,#253,.T.);
#328=CARTESIAN_POINT('',(12.000004947,52.555972366,14.061310283));
#329=VERTEX_POINT('',#328);
#330=CARTESIAN_POINT('',(12.000004947,52.555972366,14.061310283));
#331=DIRECTION('',(0.,-0.132422038,0.991193424));
#332=VECTOR('',#331,4.);
#333=LINE('',#330,#332);
#334=EDGE_CURVE('',#329,#238,#333,.T.);
#335=ORIENTED_EDGE('',*,*,#334,.F.);
#336=CARTESIAN_POINT('',(12.000004947,57.016342774,14.657209453));
#337=VERTEX_POINT('',#336);
#338=CARTESIAN_POINT('',(12.000004947,57.016342774,14.657209453));
#339=DIRECTION('',(0.,-0.991193424,-0.132422038));
#340=VECTOR('',#339,4.5);
#341=LINE('',#338,#340);
#342=EDGE_CURVE('',#337,#329,#341,.T.);
#343=ORIENTED_EDGE('',*,*,#342,.F.);
#344=CARTESIAN_POINT('',(12.000004947,57.016342774,14.657209453));
#345=DIRECTION('',(0.,-0.132422038,0.991193424));
#346=VECTOR('',#345,4.);
#347=LINE('',#344,#346);
#348=EDGE_CURVE('',#337,#248,#347,.T.);
#349=ORIENTED_EDGE('',*,*,#348,.T.);
#350=EDGE_LOOP('',(#327,#335,#343,#349));
#351=FACE_BOUND('',#350,.T.);
#352=ADVANCED_FACE('',(#351),#326,.F.);
#353=CARTESIAN_POINT('',(50.000004947,57.016342774,14.657209453));
#354=DIRECTION('',(0.,-0.991193424,-0.132422038));
#355=DIRECTION('',(0.,0.132422038,-0.991193424));
#356=AXIS2_PLACEMENT_3D('',#353,#354,#355);
#357=PLANE('',#356);
#358=ORIENTED_EDGE('',*,*,#261,.F.);
#359=ORIENTED_EDGE('',*,*,#348,.F.);
#360=CARTESIAN_POINT('',(88.000004947,57.016342774,14.657209453));
#361=VERTEX_POINT('',#360);
#362=CARTESIAN_POINT('',(12.000004947,57.016342774,14.657209453));
#363=DIRECTION('',(1.,0.,0.));
#364=VECTOR('',#363,76.);
#365=LINE('',#362,#364);
#366=EDGE_CURVE('',#337,#361,#365,.T.);
#367=ORIENTED_EDGE('',*,*,#366,.T.);
#368=CARTESIAN_POINT('',(88.000004947,57.016342774,14.657209453));
#369=DIRECTION('',(0.,-0.132422038,0.991193424));
#370=VECTOR('',#369,4.);
#371=LINE('',#368,#370);
#372=EDGE_CURVE('',#361,#256,#371,.T.);
#373=ORIENTED_EDGE('',*,*,#372,.T.);
#374=EDGE_LOOP('',(#358,#359,#367,#373));
#375=FACE_BOUND('',#374,.T.);
#376=ADVANCED_FACE('',(#375),#357,.T.);
#377=CARTESIAN_POINT('',(88.000004947,54.78615757,14.359259868));
#378=DIRECTION('',(1.,-0.,-0.));
#379=DIRECTION('',(0.,0.991444861,-0.130526192));
#380=AXIS2_PLACEMENT_3D('',#377,#378,#379);
#381=PLANE('',#380);
#382=ORIENTED_EDGE('',*,*,#267,.T.);
#383=ORIENTED_EDGE('',*,*,#372,.F.);
#384=CARTESIAN_POINT('',(88.000004947,52.555972366,14.061310283));
#385=VERTEX_POINT('',#384);
#386=CARTESIAN_POINT('',(88.000004947,52.555972366,14.061310283));
#387=DIRECTION('',(0.,0.991193424,0.132422038));
#388=VECTOR('',#387,4.5);
#389=LINE('',#386,#388);
#390=EDGE_CURVE('',#385,#361,#389,.T.);
#391=ORIENTED_EDGE('',*,*,#390,.F.);
#392=CARTESIAN_POINT('',(88.000004947,52.555972366,14.061310283));
#393=DIRECTION('',(0.,-0.132422038,0.991193424));
#394=VECTOR('',#393,4.);
#395=LINE('',#392,#394);
#396=EDGE_CURVE('',#385,#240,#395,.T.);
#397=ORIENTED_EDGE('',*,*,#396,.T.);
#398=EDGE_LOOP('',(#382,#383,#391,#397));
#399=FACE_BOUND('',#398,.T.);
#400=ADVANCED_FACE('',(#399),#381,.F.);
#401=CARTESIAN_POINT('',(50.000004947,52.555972366,14.061310283));
#402=DIRECTION('',(0.,-0.991193424,-0.132422038));
#403=DIRECTION('',(-0.,0.132422038,-0.991193424));
#404=AXIS2_PLACEMENT_3D('',#401,#402,#403);
#405=PLANE('',#404);
#406=ORIENTED_EDGE('',*,*,#245,.T.);
#407=ORIENTED_EDGE('',*,*,#396,.F.);
#408=CARTESIAN_POINT('',(12.000004947,52.555972366,14.061310283));
#409=DIRECTION('',(1.,0.,0.));
#410=VECTOR('',#409,76.);
#411=LINE('',#408,#410);
#412=EDGE_CURVE('',#329,#385,#411,.T.);
#413=ORIENTED_EDGE('',*,*,#412,.F.);
#414=ORIENTED_EDGE('',*,*,#334,.T.);
#415=EDGE_LOOP('',(#406,#407,#413,#414));
#416=FACE_BOUND('',#415,.T.);
#417=ADVANCED_FACE('',(#416),#405,.F.);
#418=CARTESIAN_POINT('',(-0.,-1.6647665,6.817496354));
#419=DIRECTION('',(0.,0.132422038,-0.991193424));
#420=DIRECTION('',(0.,0.991193424,0.132422038));
#421=AXIS2_PLACEMENT_3D('',#418,#419,#420);
#422=PLANE('',#421);
#423=ORIENTED_EDGE('',*,*,#342,.T.);
#424=ORIENTED_EDGE('',*,*,#412,.T.);
#425=ORIENTED_EDGE('',*,*,#390,.T.);
#426=ORIENTED_EDGE('',*,*,#366,.F.);
#427=EDGE_LOOP('',(#423,#424,#425,#426));
#428=FACE_BOUND('',#427,.T.);
#429=ADVANCED_FACE('',(#428),#422,.F.);
#430=CARTESIAN_POINT('',(100.,45.,11.877687639));
#431=DIRECTION('',(0.,-0.761685672,0.647946709));
#432=DIRECTION('',(0.,-0.647946709,-0.761685672));
#433=AXIS2_PLACEMENT_3D('',#430,#431,#432);
#434=PLANE('',#433);
#435=ORIENTED_EDGE('',*,*,#57,.T.);
#436=CARTESIAN_POINT('',(100.,48.756270765,16.293324887));
#437=DIRECTION('',(-1.,0.,0.));
#438=VECTOR('',#437,100.);
#439=LINE('',#436,#438);
#440=EDGE_CURVE('',#43,#149,#439,.T.);
#441=ORIENTED_EDGE('',*,*,#440,.T.);
#442=ORIENTED_EDGE('',*,*,#154,.F.);
#443=CARTESIAN_POINT('',(100.,40.,6.));
#444=DIRECTION('',(-1.,0.,0.));
#445=VECTOR('',#444,100.);
#446=LINE('',#443,#445);
#447=EDGE_CURVE('',#52,#147,#446,.T.);
#448=ORIENTED_EDGE('',*,*,#447,.F.);
#449=EDGE_LOOP('',(#435,#441,#442,#448));
#450=FACE_BOUND('',#449,.T.);
#451=ADVANCED_FACE('',(#450),#434,.T.);
#452=CARTESIAN_POINT('',(100.,40.,3.));
#453=DIRECTION('',(0.,-1.,0.));
#454=DIRECTION('',(0.,0.,-1.));
#455=AXIS2_PLACEMENT_3D('',#452,#453,#454);
#456=PLANE('',#455);
#457=ORIENTED_EDGE('',*,*,#210,.F.);
#458=ORIENTED_EDGE('',*,*,#225,.F.);
#459=ORIENTED_EDGE('',*,*,#65,.T.);
#460=ORIENTED_EDGE('',*,*,#447,.T.);
#461=EDGE_LOOP('',(#457,#458,#459,#460));
#462=FACE_BOUND('',#461,.T.);
#463=ADVANCED_FACE('',(#462),#456,.T.);
#464=CARTESIAN_POINT('',(100.,52.564699125,13.053591344));
#465=DIRECTION('',(1.,0.,0.));
#466=DIRECTION('',(0.,0.,-1.));
#467=AXIS2_PLACEMENT_3D('',#464,#465,#466);
#468=CYLINDRICAL_SURFACE('',#467,5.);
#469=ORIENTED_EDGE('',*,*,#49,.F.);
#470=ORIENTED_EDGE('',*,*,#276,.F.);
#471=ORIENTED_EDGE('',*,*,#163,.F.);
#472=ORIENTED_EDGE('',*,*,#440,.F.);
#473=EDGE_LOOP('',(#469,#470,#471,#472));
#474=FACE_BOUND('',#473,.T.);
#475=ADVANCED_FACE('',(#474),#468,.T.);
#476=CARTESIAN_POINT('',(0.,58.736512888,14.887021744));
#477=DIRECTION('',(-1.,0.,0.));
#478=DIRECTION('',(0.,0.,1.));
#479=AXIS2_PLACEMENT_3D('',#476,#477,#478);
#480=CYLINDRICAL_SURFACE('',#479,4.);
#481=ORIENTED_EDGE('',*,*,#314,.F.);
#482=ORIENTED_EDGE('',*,*,#180,.F.);
#483=ORIENTED_EDGE('',*,*,#283,.F.);
#484=ORIENTED_EDGE('',*,*,#105,.F.);
#485=EDGE_LOOP('',(#481,#482,#483,#484));
#486=FACE_BOUND('',#485,.T.);
#487=ADVANCED_FACE('',(#486),#480,.T.);
#488=CLOSED_SHELL('',(#109,#140,#214,#231,#287,#304,#321,#352,#376,#400,#417,#429,#451,#463,#475,#487));
#489=MANIFOLD_SOLID_BREP('Corps 02',#488);
#490=COLOUR_RGB('',0.494117647,0.494117647,0.525490224);
#491=FILL_AREA_STYLE_COLOUR('',#490);
#492=FILL_AREA_STYLE('',(#491));
#493=SURFACE_STYLE_FILL_AREA(#492);
#494=SURFACE_SIDE_STYLE('',(#493));
#495=SURFACE_STYLE_USAGE(.BOTH.,#494);
#496=PRESENTATION_STYLE_ASSIGNMENT((#495));
#26=STYLED_ITEM('',(#496),#489);
#16=SHAPE_REPRESENTATION('root',(#15),#10);
#17=ADVANCED_BREP_SHAPE_REPRESENTATION('root',(#489),#10);
#504=SHAPE_REPRESENTATION_RELATIONSHIP('','',#16,#17);
#505=APPLICATION_CONTEXT('configuration controlled 3D design of mechanical parts and assemblies');
#506=APPLICATION_PROTOCOL_DEFINITION('international standard','configuration_control_3d_design_ed2_mim',2004,#505);
#507=PRODUCT_CONTEXT('',#505,'mechanical');
#508=PRODUCT_DEFINITION_CONTEXT('part definition',#505,'design');
#24=PRODUCT('root','root','',(#507));
#509=PRODUCT_RELATED_PRODUCT_CATEGORY('part','',(#24));
#510=PRODUCT_DEFINITION_FORMATION_WITH_SPECIFIED_SOURCE('','',#24,.NOT_KNOWN.);
#25=PRODUCT_DEFINITION('design','',#510,#508);
#23=PRODUCT_DEFINITION_SHAPE('','',#25);
#511=SHAPE_DEFINITION_REPRESENTATION(#23,#16);
#11=DRAUGHTING_MODEL('',(),#10);
#1=MECHANICAL_DESIGN_GEOMETRIC_PRESENTATION_REPRESENTATION('',(#26),#10);
ENDSEC;
END-ISO-10303-21;
