ISO-10303-21;
HEADER;

/* File generated by Shapr3D Version 3.0 */

FILE_DESCRIPTION(('HOOPS Exchange Step'),'2;1');

FILE_NAME('/private/var/mobile/Containers/Data/Application/AE146DA9-E944-40F0-9A25-2B2D99348358/tmp/export/temp_export',
'2022-10-19T15:38:25+02:00',
('mobile'),
('Shapr3D Limited'),
'HOOPS Exchange 2022.1',
'Shapr3D',
'Authorized');

FILE_SCHEMA( ('AP203_CONFIGURATION_CONTROLLED_3D_DESIGN_OF_MECHANICAL_PARTS_AND_ASSEMBLIES_MIM_LF') );

ENDSEC;

DATA;
#3=(NAMED_UNIT(*)PLANE_ANGLE_UNIT()SI_UNIT($,.RADIAN.));
#4=PLANE_ANGLE_MEASURE_WITH_UNIT(PLANE_ANGLE_MEASURE(0.0174532925),#3);
#5=(CONVERSION_BASED_UNIT('DEGREE',#4)NAMED_UNIT(#6)PLANE_ANGLE_UNIT());
#6=DIMENSIONAL_EXPONENTS(0.,0.,0.,0.,0.,0.,0.);
#7=(NAMED_UNIT(*)SI_UNIT($,.STERADIAN.)SOLID_ANGLE_UNIT());
#8=(LENGTH_UNIT()NAMED_UNIT(*)SI_UNIT(.MILLI.,.METRE.));
#9=UNCERTAINTY_MEASURE_WITH_UNIT(LENGTH_MEASURE(1.000000E-05),#8,'DISTANCE_ACCURACY_VALUE','Maximum Tolerance applied to model');
#10=(GEOMETRIC_REPRESENTATION_CONTEXT(3)GLOBAL_UNCERTAINTY_ASSIGNED_CONTEXT((#9))GLOBAL_UNIT_ASSIGNED_CONTEXT((#8,#5,#7))REPRESENTATION_CONTEXT('','root'));
#12=CARTESIAN_POINT('',(0.,0.,0.));
#13=DIRECTION('',(0.,0.,1.));
#14=DIRECTION('',(1.,0.,0.));
#15=AXIS2_PLACEMENT_3D('TS3D_PRODUCT_CSYS',#12,#13,#14);
#27=CARTESIAN_POINT('',(53.5,137.5,10.));
#28=DIRECTION('',(0.,1.,0.));
#29=DIRECTION('',(0.,0.,1.));
#30=AXIS2_PLACEMENT_3D('',#27,#28,#29);
#31=PLANE('',#30);
#32=CARTESIAN_POINT('',(17.,137.5,10.));
#33=VERTEX_POINT('',#32);
#34=CARTESIAN_POINT('',(90.,137.5,10.));
#35=VERTEX_POINT('',#34);
#36=CARTESIAN_POINT('',(17.,137.5,10.));
#37=DIRECTION('',(1.,0.,-0.));
#38=VECTOR('',#37,73.);
#39=LINE('',#36,#38);
#40=EDGE_CURVE('',#33,#35,#39,.T.);
#41=ORIENTED_EDGE('',*,*,#40,.T.);
#42=CARTESIAN_POINT('',(90.,137.5,7.2));
#43=VERTEX_POINT('',#42);
#44=CARTESIAN_POINT('',(90.,137.5,10.));
#45=DIRECTION('',(0.,0.,-1.));
#46=VECTOR('',#45,2.8);
#47=LINE('',#44,#46);
#48=EDGE_CURVE('',#35,#43,#47,.T.);
#49=ORIENTED_EDGE('',*,*,#48,.T.);
#50=CARTESIAN_POINT('',(17.,137.5,7.2));
#51=VERTEX_POINT('',#50);
#52=CARTESIAN_POINT('',(17.,137.5,7.2));
#53=DIRECTION('',(1.,0.,-0.));
#54=VECTOR('',#53,73.);
#55=LINE('',#52,#54);
#56=EDGE_CURVE('',#51,#43,#55,.T.);
#57=ORIENTED_EDGE('',*,*,#56,.F.);
#58=CARTESIAN_POINT('',(17.,137.5,7.2));
#59=DIRECTION('',(-0.,-0.,1.));
#60=VECTOR('',#59,2.8);
#61=LINE('',#58,#60);
#62=EDGE_CURVE('',#51,#33,#61,.T.);
#63=ORIENTED_EDGE('',*,*,#62,.T.);
#64=EDGE_LOOP('',(#41,#49,#57,#63));
#65=FACE_BOUND('',#64,.T.);
#66=ADVANCED_FACE('',(#65),#31,.T.);
#67=CARTESIAN_POINT('',(12.,9.5,12.));
#68=DIRECTION('',(1.,0.,0.));
#69=DIRECTION('',(0.,0.,-1.));
#70=AXIS2_PLACEMENT_3D('',#67,#68,#69);
#71=PLANE('',#70);
#72=CARTESIAN_POINT('',(12.,9.,0.));
#73=VERTEX_POINT('',#72);
#74=CARTESIAN_POINT('',(12.,132.5,0.));
#75=VERTEX_POINT('',#74);
#76=CARTESIAN_POINT('',(12.,9.,0.));
#77=DIRECTION('',(0.,1.,0.));
#78=VECTOR('',#77,123.5);
#79=LINE('',#76,#78);
#80=EDGE_CURVE('',#73,#75,#79,.T.);
#81=ORIENTED_EDGE('',*,*,#80,.F.);
#82=CARTESIAN_POINT('',(12.,9.,10.));
#83=VERTEX_POINT('',#82);
#84=CARTESIAN_POINT('',(12.,9.,0.));
#85=DIRECTION('',(-0.,-0.,1.));
#86=VECTOR('',#85,10.);
#87=LINE('',#84,#86);
#88=EDGE_CURVE('',#73,#83,#87,.T.);
#89=ORIENTED_EDGE('',*,*,#88,.T.);
#90=CARTESIAN_POINT('',(12.,132.5,10.));
#91=VERTEX_POINT('',#90);
#92=CARTESIAN_POINT('',(12.,132.5,10.));
#93=DIRECTION('',(0.,-1.,0.));
#94=VECTOR('',#93,123.5);
#95=LINE('',#92,#94);
#96=EDGE_CURVE('',#91,#83,#95,.T.);
#97=ORIENTED_EDGE('',*,*,#96,.F.);
#98=CARTESIAN_POINT('',(12.,132.5,10.));
#99=DIRECTION('',(0.,0.,-1.));
#100=VECTOR('',#99,10.);
#101=LINE('',#98,#100);
#102=EDGE_CURVE('',#91,#75,#101,.T.);
#103=ORIENTED_EDGE('',*,*,#102,.T.);
#104=EDGE_LOOP('',(#81,#89,#97,#103));
#105=FACE_BOUND('',#104,.T.);
#106=ADVANCED_FACE('',(#105),#71,.F.);
#107=CARTESIAN_POINT('',(17.5,4.,12.));
#108=DIRECTION('',(0.,1.,0.));
#109=DIRECTION('',(0.,0.,1.));
#110=AXIS2_PLACEMENT_3D('',#107,#108,#109);
#111=PLANE('',#110);
#112=CARTESIAN_POINT('',(17.,4.,10.));
#113=VERTEX_POINT('',#112);
#114=CARTESIAN_POINT('',(90.,4.,10.));
#115=VERTEX_POINT('',#114);
#116=CARTESIAN_POINT('',(17.,4.,10.));
#117=DIRECTION('',(1.,0.,-0.));
#118=VECTOR('',#117,73.);
#119=LINE('',#116,#118);
#120=EDGE_CURVE('',#113,#115,#119,.T.);
#121=ORIENTED_EDGE('',*,*,#120,.F.);
#122=CARTESIAN_POINT('',(17.,4.,0.));
#123=VERTEX_POINT('',#122);
#124=CARTESIAN_POINT('',(17.,4.,10.));
#125=DIRECTION('',(0.,0.,-1.));
#126=VECTOR('',#125,10.);
#127=LINE('',#124,#126);
#128=EDGE_CURVE('',#113,#123,#127,.T.);
#129=ORIENTED_EDGE('',*,*,#128,.T.);
#130=CARTESIAN_POINT('',(90.,4.,0.));
#131=VERTEX_POINT('',#130);
#132=CARTESIAN_POINT('',(17.,4.,0.));
#133=DIRECTION('',(1.,0.,-0.));
#134=VECTOR('',#133,73.);
#135=LINE('',#132,#134);
#136=EDGE_CURVE('',#123,#131,#135,.T.);
#137=ORIENTED_EDGE('',*,*,#136,.T.);
#138=CARTESIAN_POINT('',(90.,4.,0.));
#139=DIRECTION('',(-0.,-0.,1.));
#140=VECTOR('',#139,10.);
#141=LINE('',#138,#140);
#142=EDGE_CURVE('',#131,#115,#141,.T.);
#143=ORIENTED_EDGE('',*,*,#142,.T.);
#144=EDGE_LOOP('',(#121,#129,#137,#143));
#145=FACE_BOUND('',#144,.T.);
#146=ADVANCED_FACE('',(#145),#111,.F.);
#147=CARTESIAN_POINT('',(-110.,-3.,10.));
#148=DIRECTION('',(0.,0.,1.));
#149=DIRECTION('',(1.,0.,0.));
#150=AXIS2_PLACEMENT_3D('',#147,#148,#149);
#151=PLANE('',#150);
#152=ORIENTED_EDGE('',*,*,#96,.T.);
#153=CARTESIAN_POINT('',(17.,9.,10.));
#154=DIRECTION('',(0.,0.,1.));
#155=DIRECTION('',(1.,0.,-0.));
#156=AXIS2_PLACEMENT_3D('',#153,#154,#155);
#157=CIRCLE('',#156,5.);
#158=EDGE_CURVE('',#83,#113,#157,.T.);
#159=ORIENTED_EDGE('',*,*,#158,.T.);
#160=ORIENTED_EDGE('',*,*,#120,.T.);
#161=CARTESIAN_POINT('',(95.,9.,10.));
#162=VERTEX_POINT('',#161);
#163=CARTESIAN_POINT('',(90.,9.,10.));
#164=DIRECTION('',(0.,0.,1.));
#165=DIRECTION('',(1.,0.,-0.));
#166=AXIS2_PLACEMENT_3D('',#163,#164,#165);
#167=CIRCLE('',#166,5.);
#168=EDGE_CURVE('',#115,#162,#167,.T.);
#169=ORIENTED_EDGE('',*,*,#168,.T.);
#170=CARTESIAN_POINT('',(95.,132.5,10.));
#171=VERTEX_POINT('',#170);
#172=CARTESIAN_POINT('',(95.,9.,10.));
#173=DIRECTION('',(0.,1.,0.));
#174=VECTOR('',#173,123.5);
#175=LINE('',#172,#174);
#176=EDGE_CURVE('',#162,#171,#175,.T.);
#177=ORIENTED_EDGE('',*,*,#176,.T.);
#178=CARTESIAN_POINT('',(90.,132.5,10.));
#179=DIRECTION('',(0.,0.,1.));
#180=DIRECTION('',(1.,0.,-0.));
#181=AXIS2_PLACEMENT_3D('',#178,#179,#180);
#182=CIRCLE('',#181,5.);
#183=EDGE_CURVE('',#171,#35,#182,.T.);
#184=ORIENTED_EDGE('',*,*,#183,.T.);
#185=ORIENTED_EDGE('',*,*,#40,.F.);
#186=CARTESIAN_POINT('',(17.,132.5,10.));
#187=DIRECTION('',(0.,0.,1.));
#188=DIRECTION('',(1.,0.,-0.));
#189=AXIS2_PLACEMENT_3D('',#186,#187,#188);
#190=CIRCLE('',#189,5.);
#191=EDGE_CURVE('',#33,#91,#190,.T.);
#192=ORIENTED_EDGE('',*,*,#191,.T.);
#193=EDGE_LOOP('',(#152,#159,#160,#169,#177,#184,#185,#192));
#194=FACE_BOUND('',#193,.T.);
#195=CARTESIAN_POINT('',(17.,9.,10.));
#196=VERTEX_POINT('',#195);
#197=CARTESIAN_POINT('',(90.,9.,10.));
#198=VERTEX_POINT('',#197);
#199=CARTESIAN_POINT('',(17.,9.,10.));
#200=DIRECTION('',(1.,0.,-0.));
#201=VECTOR('',#200,73.);
#202=LINE('',#199,#201);
#203=EDGE_CURVE('',#196,#198,#202,.T.);
#204=ORIENTED_EDGE('',*,*,#203,.F.);
#205=CARTESIAN_POINT('',(17.,132.,10.));
#206=VERTEX_POINT('',#205);
#207=CARTESIAN_POINT('',(17.,132.,10.));
#208=DIRECTION('',(0.,-1.,0.));
#209=VECTOR('',#208,123.);
#210=LINE('',#207,#209);
#211=EDGE_CURVE('',#206,#196,#210,.T.);
#212=ORIENTED_EDGE('',*,*,#211,.F.);
#213=CARTESIAN_POINT('',(90.,132.,10.));
#214=VERTEX_POINT('',#213);
#215=CARTESIAN_POINT('',(90.,132.,10.));
#216=DIRECTION('',(-1.,0.,0.));
#217=VECTOR('',#216,73.);
#218=LINE('',#215,#217);
#219=EDGE_CURVE('',#214,#206,#218,.T.);
#220=ORIENTED_EDGE('',*,*,#219,.F.);
#221=CARTESIAN_POINT('',(90.,9.,10.));
#222=DIRECTION('',(0.,1.,0.));
#223=VECTOR('',#222,123.);
#224=LINE('',#221,#223);
#225=EDGE_CURVE('',#198,#214,#224,.T.);
#226=ORIENTED_EDGE('',*,*,#225,.F.);
#227=EDGE_LOOP('',(#204,#212,#220,#226));
#228=FACE_BOUND('',#227,.T.);
#229=ADVANCED_FACE('',(#194,#228),#151,.T.);
#230=CARTESIAN_POINT('',(95.,9.5,12.));
#231=DIRECTION('',(-1.,0.,0.));
#232=DIRECTION('',(0.,0.,1.));
#233=AXIS2_PLACEMENT_3D('',#230,#231,#232);
#234=PLANE('',#233);
#235=ORIENTED_EDGE('',*,*,#176,.F.);
#236=CARTESIAN_POINT('',(95.,9.,0.));
#237=VERTEX_POINT('',#236);
#238=CARTESIAN_POINT('',(95.,9.,10.));
#239=DIRECTION('',(0.,0.,-1.));
#240=VECTOR('',#239,10.);
#241=LINE('',#238,#240);
#242=EDGE_CURVE('',#162,#237,#241,.T.);
#243=ORIENTED_EDGE('',*,*,#242,.T.);
#244=CARTESIAN_POINT('',(95.,132.5,0.));
#245=VERTEX_POINT('',#244);
#246=CARTESIAN_POINT('',(95.,9.,0.));
#247=DIRECTION('',(0.,1.,0.));
#248=VECTOR('',#247,123.5);
#249=LINE('',#246,#248);
#250=EDGE_CURVE('',#237,#245,#249,.T.);
#251=ORIENTED_EDGE('',*,*,#250,.T.);
#252=CARTESIAN_POINT('',(95.,132.5,0.));
#253=DIRECTION('',(-0.,-0.,1.));
#254=VECTOR('',#253,10.);
#255=LINE('',#252,#254);
#256=EDGE_CURVE('',#245,#171,#255,.T.);
#257=ORIENTED_EDGE('',*,*,#256,.T.);
#258=EDGE_LOOP('',(#235,#243,#251,#257));
#259=FACE_BOUND('',#258,.T.);
#260=ADVANCED_FACE('',(#259),#234,.F.);
#261=CARTESIAN_POINT('',(53.5,137.5,10.));
#262=DIRECTION('',(0.,1.,0.));
#263=DIRECTION('',(0.,0.,1.));
#264=AXIS2_PLACEMENT_3D('',#261,#262,#263);
#265=PLANE('',#264);
#266=CARTESIAN_POINT('',(17.,137.5,2.6));
#267=VERTEX_POINT('',#266);
#268=CARTESIAN_POINT('',(90.,137.5,2.6));
#269=VERTEX_POINT('',#268);
#270=CARTESIAN_POINT('',(17.,137.5,2.6));
#271=DIRECTION('',(1.,0.,-0.));
#272=VECTOR('',#271,73.);
#273=LINE('',#270,#272);
#274=EDGE_CURVE('',#267,#269,#273,.T.);
#275=ORIENTED_EDGE('',*,*,#274,.T.);
#276=CARTESIAN_POINT('',(90.,137.5,0.));
#277=VERTEX_POINT('',#276);
#278=CARTESIAN_POINT('',(90.,137.5,2.6));
#279=DIRECTION('',(0.,0.,-1.));
#280=VECTOR('',#279,2.6);
#281=LINE('',#278,#280);
#282=EDGE_CURVE('',#269,#277,#281,.T.);
#283=ORIENTED_EDGE('',*,*,#282,.T.);
#284=CARTESIAN_POINT('',(17.,137.5,0.));
#285=VERTEX_POINT('',#284);
#286=CARTESIAN_POINT('',(17.,137.5,0.));
#287=DIRECTION('',(1.,0.,-0.));
#288=VECTOR('',#287,73.);
#289=LINE('',#286,#288);
#290=EDGE_CURVE('',#285,#277,#289,.T.);
#291=ORIENTED_EDGE('',*,*,#290,.F.);
#292=CARTESIAN_POINT('',(17.,137.5,0.));
#293=DIRECTION('',(-0.,-0.,1.));
#294=VECTOR('',#293,2.6);
#295=LINE('',#292,#294);
#296=EDGE_CURVE('',#285,#267,#295,.T.);
#297=ORIENTED_EDGE('',*,*,#296,.T.);
#298=EDGE_LOOP('',(#275,#283,#291,#297));
#299=FACE_BOUND('',#298,.T.);
#300=ADVANCED_FACE('',(#299),#265,.T.);
#301=CARTESIAN_POINT('',(0.,-1.,0.));
#302=DIRECTION('',(0.,0.,1.));
#303=DIRECTION('',(1.,0.,0.));
#304=AXIS2_PLACEMENT_3D('',#301,#302,#303);
#305=PLANE('',#304);
#306=ORIENTED_EDGE('',*,*,#136,.F.);
#307=CARTESIAN_POINT('',(17.,9.,0.));
#308=DIRECTION('',(-0.,-0.,-1.));
#309=DIRECTION('',(1.,0.,-0.));
#310=AXIS2_PLACEMENT_3D('',#307,#308,#309);
#311=CIRCLE('',#310,5.);
#312=EDGE_CURVE('',#123,#73,#311,.T.);
#313=ORIENTED_EDGE('',*,*,#312,.T.);
#314=ORIENTED_EDGE('',*,*,#80,.T.);
#315=CARTESIAN_POINT('',(17.,132.5,0.));
#316=DIRECTION('',(-0.,-0.,-1.));
#317=DIRECTION('',(1.,0.,-0.));
#318=AXIS2_PLACEMENT_3D('',#315,#316,#317);
#319=CIRCLE('',#318,5.);
#320=EDGE_CURVE('',#75,#285,#319,.T.);
#321=ORIENTED_EDGE('',*,*,#320,.T.);
#322=ORIENTED_EDGE('',*,*,#290,.T.);
#323=CARTESIAN_POINT('',(90.,132.5,0.));
#324=DIRECTION('',(-0.,-0.,-1.));
#325=DIRECTION('',(1.,0.,-0.));
#326=AXIS2_PLACEMENT_3D('',#323,#324,#325);
#327=CIRCLE('',#326,5.);
#328=EDGE_CURVE('',#277,#245,#327,.T.);
#329=ORIENTED_EDGE('',*,*,#328,.T.);
#330=ORIENTED_EDGE('',*,*,#250,.F.);
#331=CARTESIAN_POINT('',(90.,9.,0.));
#332=DIRECTION('',(-0.,-0.,-1.));
#333=DIRECTION('',(1.,0.,-0.));
#334=AXIS2_PLACEMENT_3D('',#331,#332,#333);
#335=CIRCLE('',#334,5.);
#336=EDGE_CURVE('',#237,#131,#335,.T.);
#337=ORIENTED_EDGE('',*,*,#336,.T.);
#338=EDGE_LOOP('',(#306,#313,#314,#321,#322,#329,#330,#337));
#339=FACE_BOUND('',#338,.T.);
#340=ADVANCED_FACE('',(#339),#305,.F.);
#341=CARTESIAN_POINT('',(53.5,132.,6.));
#342=DIRECTION('',(0.,1.,0.));
#343=DIRECTION('',(0.,0.,1.));
#344=AXIS2_PLACEMENT_3D('',#341,#342,#343);
#345=PLANE('',#344);
#346=CARTESIAN_POINT('',(17.,132.,7.2));
#347=VERTEX_POINT('',#346);
#348=CARTESIAN_POINT('',(17.,132.,7.2));
#349=DIRECTION('',(0.,0.,1.));
#350=VECTOR('',#349,2.8);
#351=LINE('',#348,#350);
#352=EDGE_CURVE('',#347,#206,#351,.T.);
#353=ORIENTED_EDGE('',*,*,#352,.F.);
#354=CARTESIAN_POINT('',(90.,132.,7.2));
#355=VERTEX_POINT('',#354);
#356=CARTESIAN_POINT('',(17.,132.,7.2));
#357=DIRECTION('',(1.,0.,-0.));
#358=VECTOR('',#357,73.);
#359=LINE('',#356,#358);
#360=EDGE_CURVE('',#347,#355,#359,.T.);
#361=ORIENTED_EDGE('',*,*,#360,.T.);
#362=CARTESIAN_POINT('',(90.,132.,7.2));
#363=DIRECTION('',(0.,0.,1.));
#364=VECTOR('',#363,2.8);
#365=LINE('',#362,#364);
#366=EDGE_CURVE('',#355,#214,#365,.T.);
#367=ORIENTED_EDGE('',*,*,#366,.T.);
#368=ORIENTED_EDGE('',*,*,#219,.T.);
#369=EDGE_LOOP('',(#353,#361,#367,#368));
#370=FACE_BOUND('',#369,.T.);
#371=ADVANCED_FACE('',(#370),#345,.F.);
#372=CARTESIAN_POINT('',(17.,70.499999344,6.));
#373=DIRECTION('',(-1.,0.,0.));
#374=DIRECTION('',(0.,0.,1.));
#375=AXIS2_PLACEMENT_3D('',#372,#373,#374);
#376=PLANE('',#375);
#377=CARTESIAN_POINT('',(17.,9.,7.2));
#378=VERTEX_POINT('',#377);
#379=CARTESIAN_POINT('',(17.,9.,7.2));
#380=DIRECTION('',(0.,0.,1.));
#381=VECTOR('',#380,2.8);
#382=LINE('',#379,#381);
#383=EDGE_CURVE('',#378,#196,#382,.T.);
#384=ORIENTED_EDGE('',*,*,#383,.F.);
#385=CARTESIAN_POINT('',(17.,9.,7.2));
#386=DIRECTION('',(0.,1.,0.));
#387=VECTOR('',#386,123.);
#388=LINE('',#385,#387);
#389=EDGE_CURVE('',#378,#347,#388,.T.);
#390=ORIENTED_EDGE('',*,*,#389,.T.);
#391=ORIENTED_EDGE('',*,*,#352,.T.);
#392=ORIENTED_EDGE('',*,*,#211,.T.);
#393=EDGE_LOOP('',(#384,#390,#391,#392));
#394=FACE_BOUND('',#393,.T.);
#395=ADVANCED_FACE('',(#394),#376,.F.);
#396=CARTESIAN_POINT('',(53.5,9.,6.));
#397=DIRECTION('',(0.,-1.,0.));
#398=DIRECTION('',(0.,0.,-1.));
#399=AXIS2_PLACEMENT_3D('',#396,#397,#398);
#400=PLANE('',#399);
#401=CARTESIAN_POINT('',(90.,9.,7.2));
#402=VERTEX_POINT('',#401);
#403=CARTESIAN_POINT('',(90.,9.,7.2));
#404=DIRECTION('',(0.,0.,1.));
#405=VECTOR('',#404,2.8);
#406=LINE('',#403,#405);
#407=EDGE_CURVE('',#402,#198,#406,.T.);
#408=ORIENTED_EDGE('',*,*,#407,.F.);
#409=CARTESIAN_POINT('',(90.,9.,7.2));
#410=DIRECTION('',(-1.,0.,0.));
#411=VECTOR('',#410,73.);
#412=LINE('',#409,#411);
#413=EDGE_CURVE('',#402,#378,#412,.T.);
#414=ORIENTED_EDGE('',*,*,#413,.T.);
#415=ORIENTED_EDGE('',*,*,#383,.T.);
#416=ORIENTED_EDGE('',*,*,#203,.T.);
#417=EDGE_LOOP('',(#408,#414,#415,#416));
#418=FACE_BOUND('',#417,.T.);
#419=ADVANCED_FACE('',(#418),#400,.F.);
#420=CARTESIAN_POINT('',(90.,70.499999344,6.));
#421=DIRECTION('',(1.,0.,0.));
#422=DIRECTION('',(0.,0.,-1.));
#423=AXIS2_PLACEMENT_3D('',#420,#421,#422);
#424=PLANE('',#423);
#425=ORIENTED_EDGE('',*,*,#366,.F.);
#426=CARTESIAN_POINT('',(90.,132.,7.2));
#427=DIRECTION('',(0.,-1.,0.));
#428=VECTOR('',#427,123.);
#429=LINE('',#426,#428);
#430=EDGE_CURVE('',#355,#402,#429,.T.);
#431=ORIENTED_EDGE('',*,*,#430,.T.);
#432=ORIENTED_EDGE('',*,*,#407,.T.);
#433=ORIENTED_EDGE('',*,*,#225,.T.);
#434=EDGE_LOOP('',(#425,#431,#432,#433));
#435=FACE_BOUND('',#434,.T.);
#436=ADVANCED_FACE('',(#435),#424,.F.);
#437=CARTESIAN_POINT('',(53.5,7.5,7.2));
#438=DIRECTION('',(0.,0.,1.));
#439=DIRECTION('',(1.,0.,0.));
#440=AXIS2_PLACEMENT_3D('',#437,#438,#439);
#441=PLANE('',#440);
#442=ORIENTED_EDGE('',*,*,#56,.T.);
#443=CARTESIAN_POINT('',(92.5,136.830127019,7.2));
#444=VERTEX_POINT('',#443);
#445=CARTESIAN_POINT('',(90.,132.5,7.2));
#446=DIRECTION('',(-0.,-0.,-1.));
#447=DIRECTION('',(1.,0.,-0.));
#448=AXIS2_PLACEMENT_3D('',#445,#446,#447);
#449=CIRCLE('',#448,5.);
#450=EDGE_CURVE('',#43,#444,#449,.T.);
#451=ORIENTED_EDGE('',*,*,#450,.T.);
#452=CARTESIAN_POINT('',(92.5,7.5,7.2));
#453=VERTEX_POINT('',#452);
#454=CARTESIAN_POINT('',(92.5,7.5,7.2));
#455=DIRECTION('',(0.,1.,0.));
#456=VECTOR('',#455,129.330127019);
#457=LINE('',#454,#456);
#458=EDGE_CURVE('',#453,#444,#457,.T.);
#459=ORIENTED_EDGE('',*,*,#458,.F.);
#460=CARTESIAN_POINT('',(14.5,7.5,7.2));
#461=VERTEX_POINT('',#460);
#462=CARTESIAN_POINT('',(14.5,7.5,7.2));
#463=DIRECTION('',(1.,0.,-0.));
#464=VECTOR('',#463,78.);
#465=LINE('',#462,#464);
#466=EDGE_CURVE('',#461,#453,#465,.T.);
#467=ORIENTED_EDGE('',*,*,#466,.F.);
#468=CARTESIAN_POINT('',(14.5,136.830127019,7.2));
#469=VERTEX_POINT('',#468);
#470=CARTESIAN_POINT('',(14.5,7.5,7.2));
#471=DIRECTION('',(0.,1.,0.));
#472=VECTOR('',#471,129.330127019);
#473=LINE('',#470,#472);
#474=EDGE_CURVE('',#461,#469,#473,.T.);
#475=ORIENTED_EDGE('',*,*,#474,.T.);
#476=CARTESIAN_POINT('',(17.,132.5,7.2));
#477=DIRECTION('',(-0.,-0.,-1.));
#478=DIRECTION('',(1.,0.,-0.));
#479=AXIS2_PLACEMENT_3D('',#476,#477,#478);
#480=CIRCLE('',#479,5.);
#481=EDGE_CURVE('',#469,#51,#480,.T.);
#482=ORIENTED_EDGE('',*,*,#481,.T.);
#483=EDGE_LOOP('',(#442,#451,#459,#467,#475,#482));
#484=FACE_BOUND('',#483,.T.);
#485=ORIENTED_EDGE('',*,*,#389,.F.);
#486=ORIENTED_EDGE('',*,*,#413,.F.);
#487=ORIENTED_EDGE('',*,*,#430,.F.);
#488=ORIENTED_EDGE('',*,*,#360,.F.);
#489=EDGE_LOOP('',(#485,#486,#487,#488));
#490=FACE_BOUND('',#489,.T.);
#491=ADVANCED_FACE('',(#484,#490),#441,.F.);
#492=CARTESIAN_POINT('',(92.5,7.5,4.95));
#493=DIRECTION('',(1.,0.,0.));
#494=DIRECTION('',(0.,0.,-1.));
#495=AXIS2_PLACEMENT_3D('',#492,#493,#494);
#496=PLANE('',#495);
#497=ORIENTED_EDGE('',*,*,#458,.T.);
#498=CARTESIAN_POINT('',(92.5,136.830127019,2.6));
#499=VERTEX_POINT('',#498);
#500=CARTESIAN_POINT('',(92.5,136.830127019,7.2));
#501=DIRECTION('',(-0.,-0.,-1.));
#502=VECTOR('',#501,4.6);
#503=LINE('',#500,#502);
#504=EDGE_CURVE('',#444,#499,#503,.T.);
#505=ORIENTED_EDGE('',*,*,#504,.T.);
#506=CARTESIAN_POINT('',(92.5,7.5,2.6));
#507=VERTEX_POINT('',#506);
#508=CARTESIAN_POINT('',(92.5,7.5,2.6));
#509=DIRECTION('',(0.,1.,0.));
#510=VECTOR('',#509,129.330127019);
#511=LINE('',#508,#510);
#512=EDGE_CURVE('',#507,#499,#511,.T.);
#513=ORIENTED_EDGE('',*,*,#512,.F.);
#514=CARTESIAN_POINT('',(92.5,7.5,7.2));
#515=DIRECTION('',(0.,0.,-1.));
#516=VECTOR('',#515,4.6);
#517=LINE('',#514,#516);
#518=EDGE_CURVE('',#453,#507,#517,.T.);
#519=ORIENTED_EDGE('',*,*,#518,.F.);
#520=EDGE_LOOP('',(#497,#505,#513,#519));
#521=FACE_BOUND('',#520,.T.);
#522=ADVANCED_FACE('',(#521),#496,.F.);
#523=CARTESIAN_POINT('',(14.5,7.5,4.95));
#524=DIRECTION('',(-1.,0.,0.));
#525=DIRECTION('',(0.,0.,1.));
#526=AXIS2_PLACEMENT_3D('',#523,#524,#525);
#527=PLANE('',#526);
#528=CARTESIAN_POINT('',(14.5,7.5,2.6));
#529=VERTEX_POINT('',#528);
#530=CARTESIAN_POINT('',(14.5,136.830127019,2.6));
#531=VERTEX_POINT('',#530);
#532=CARTESIAN_POINT('',(14.5,7.5,2.6));
#533=DIRECTION('',(0.,1.,0.));
#534=VECTOR('',#533,129.330127019);
#535=LINE('',#532,#534);
#536=EDGE_CURVE('',#529,#531,#535,.T.);
#537=ORIENTED_EDGE('',*,*,#536,.T.);
#538=CARTESIAN_POINT('',(14.5,136.830127019,2.6));
#539=DIRECTION('',(0.,0.,1.));
#540=VECTOR('',#539,4.6);
#541=LINE('',#538,#540);
#542=EDGE_CURVE('',#531,#469,#541,.T.);
#543=ORIENTED_EDGE('',*,*,#542,.T.);
#544=ORIENTED_EDGE('',*,*,#474,.F.);
#545=CARTESIAN_POINT('',(14.5,7.5,2.6));
#546=DIRECTION('',(0.,0.,1.));
#547=VECTOR('',#546,4.6);
#548=LINE('',#545,#547);
#549=EDGE_CURVE('',#529,#461,#548,.T.);
#550=ORIENTED_EDGE('',*,*,#549,.F.);
#551=EDGE_LOOP('',(#537,#543,#544,#550));
#552=FACE_BOUND('',#551,.T.);
#553=ADVANCED_FACE('',(#552),#527,.F.);
#554=CARTESIAN_POINT('',(0.,7.5,0.));
#555=DIRECTION('',(0.,1.,0.));
#556=DIRECTION('',(0.,0.,1.));
#557=AXIS2_PLACEMENT_3D('',#554,#555,#556);
#558=PLANE('',#557);
#559=ORIENTED_EDGE('',*,*,#518,.T.);
#560=CARTESIAN_POINT('',(14.5,7.5,2.6));
#561=DIRECTION('',(1.,0.,-0.));
#562=VECTOR('',#561,78.);
#563=LINE('',#560,#562);
#564=EDGE_CURVE('',#529,#507,#563,.T.);
#565=ORIENTED_EDGE('',*,*,#564,.F.);
#566=ORIENTED_EDGE('',*,*,#549,.T.);
#567=ORIENTED_EDGE('',*,*,#466,.T.);
#568=EDGE_LOOP('',(#559,#565,#566,#567));
#569=FACE_BOUND('',#568,.T.);
#570=ADVANCED_FACE('',(#569),#558,.T.);
#571=CARTESIAN_POINT('',(0.,0.,2.6));
#572=DIRECTION('',(0.,0.,1.));
#573=DIRECTION('',(1.,0.,0.));
#574=AXIS2_PLACEMENT_3D('',#571,#572,#573);
#575=PLANE('',#574);
#576=ORIENTED_EDGE('',*,*,#512,.T.);
#577=CARTESIAN_POINT('',(90.,132.5,2.6));
#578=DIRECTION('',(0.,0.,1.));
#579=DIRECTION('',(1.,0.,-0.));
#580=AXIS2_PLACEMENT_3D('',#577,#578,#579);
#581=CIRCLE('',#580,5.);
#582=EDGE_CURVE('',#499,#269,#581,.T.);
#583=ORIENTED_EDGE('',*,*,#582,.T.);
#584=ORIENTED_EDGE('',*,*,#274,.F.);
#585=CARTESIAN_POINT('',(17.,132.5,2.6));
#586=DIRECTION('',(0.,0.,1.));
#587=DIRECTION('',(1.,0.,-0.));
#588=AXIS2_PLACEMENT_3D('',#585,#586,#587);
#589=CIRCLE('',#588,5.);
#590=EDGE_CURVE('',#267,#531,#589,.T.);
#591=ORIENTED_EDGE('',*,*,#590,.T.);
#592=ORIENTED_EDGE('',*,*,#536,.F.);
#593=ORIENTED_EDGE('',*,*,#564,.T.);
#594=EDGE_LOOP('',(#576,#583,#584,#591,#592,#593));
#595=FACE_BOUND('',#594,.T.);
#596=ADVANCED_FACE('',(#595),#575,.T.);
#597=CARTESIAN_POINT('',(17.,132.5,12.));
#598=DIRECTION('',(0.,0.,1.));
#599=DIRECTION('',(1.,0.,-0.));
#600=AXIS2_PLACEMENT_3D('',#597,#598,#599);
#601=CYLINDRICAL_SURFACE('',#600,5.);
#602=ORIENTED_EDGE('',*,*,#590,.F.);
#603=ORIENTED_EDGE('',*,*,#296,.F.);
#604=ORIENTED_EDGE('',*,*,#320,.F.);
#605=ORIENTED_EDGE('',*,*,#102,.F.);
#606=ORIENTED_EDGE('',*,*,#191,.F.);
#607=ORIENTED_EDGE('',*,*,#62,.F.);
#608=ORIENTED_EDGE('',*,*,#481,.F.);
#609=ORIENTED_EDGE('',*,*,#542,.F.);
#610=EDGE_LOOP('',(#602,#603,#604,#605,#606,#607,#608,#609));
#611=FACE_BOUND('',#610,.T.);
#612=ADVANCED_FACE('',(#611),#601,.T.);
#613=CARTESIAN_POINT('',(90.,132.5,10.));
#614=DIRECTION('',(0.,0.,1.));
#615=DIRECTION('',(1.,0.,-0.));
#616=AXIS2_PLACEMENT_3D('',#613,#614,#615);
#617=CYLINDRICAL_SURFACE('',#616,5.);
#618=ORIENTED_EDGE('',*,*,#183,.F.);
#619=ORIENTED_EDGE('',*,*,#256,.F.);
#620=ORIENTED_EDGE('',*,*,#328,.F.);
#621=ORIENTED_EDGE('',*,*,#282,.F.);
#622=ORIENTED_EDGE('',*,*,#582,.F.);
#623=ORIENTED_EDGE('',*,*,#504,.F.);
#624=ORIENTED_EDGE('',*,*,#450,.F.);
#625=ORIENTED_EDGE('',*,*,#48,.F.);
#626=EDGE_LOOP('',(#618,#619,#620,#621,#622,#623,#624,#625));
#627=FACE_BOUND('',#626,.T.);
#628=ADVANCED_FACE('',(#627),#617,.T.);
#629=CARTESIAN_POINT('',(90.,9.,12.));
#630=DIRECTION('',(0.,0.,-1.));
#631=DIRECTION('',(-1.,0.,0.));
#632=AXIS2_PLACEMENT_3D('',#629,#630,#631);
#633=CYLINDRICAL_SURFACE('',#632,5.);
#634=ORIENTED_EDGE('',*,*,#168,.F.);
#635=ORIENTED_EDGE('',*,*,#142,.F.);
#636=ORIENTED_EDGE('',*,*,#336,.F.);
#637=ORIENTED_EDGE('',*,*,#242,.F.);
#638=EDGE_LOOP('',(#634,#635,#636,#637));
#639=FACE_BOUND('',#638,.T.);
#640=ADVANCED_FACE('',(#639),#633,.T.);
#641=CARTESIAN_POINT('',(17.,9.,12.));
#642=DIRECTION('',(0.,0.,-1.));
#643=DIRECTION('',(-1.,0.,0.));
#644=AXIS2_PLACEMENT_3D('',#641,#642,#643);
#645=CYLINDRICAL_SURFACE('',#644,5.);
#646=ORIENTED_EDGE('',*,*,#158,.F.);
#647=ORIENTED_EDGE('',*,*,#88,.F.);
#648=ORIENTED_EDGE('',*,*,#312,.F.);
#649=ORIENTED_EDGE('',*,*,#128,.F.);
#650=EDGE_LOOP('',(#646,#647,#648,#649));
#651=FACE_BOUND('',#650,.T.);
#652=ADVANCED_FACE('',(#651),#645,.T.);
#653=CLOSED_SHELL('',(#66,#106,#146,#229,#260,#300,#340,#371,#395,#419,#436,#491,#522,#553,#570,#596,#612,#628,#640,#652));
#654=MANIFOLD_SOLID_BREP('Corps 03',#653);
#655=COLOUR_RGB('',0.494117647,0.494117647,0.525490224);
#656=FILL_AREA_STYLE_COLOUR('',#655);
#657=FILL_AREA_STYLE('',(#656));
#658=SURFACE_STYLE_FILL_AREA(#657);
#659=SURFACE_SIDE_STYLE('',(#658));
#660=SURFACE_STYLE_USAGE(.BOTH.,#659);
#661=PRESENTATION_STYLE_ASSIGNMENT((#660));
#26=STYLED_ITEM('',(#661),#654);
#16=SHAPE_REPRESENTATION('root',(#15),#10);
#17=ADVANCED_BREP_SHAPE_REPRESENTATION('root',(#654),#10);
#669=SHAPE_REPRESENTATION_RELATIONSHIP('','',#16,#17);
#670=APPLICATION_CONTEXT('configuration controlled 3D design of mechanical parts and assemblies');
#671=APPLICATION_PROTOCOL_DEFINITION('international standard','configuration_control_3d_design_ed2_mim',2004,#670);
#672=PRODUCT_CONTEXT('',#670,'mechanical');
#673=PRODUCT_DEFINITION_CONTEXT('part definition',#670,'design');
#24=PRODUCT('root','root','',(#672));
#674=PRODUCT_RELATED_PRODUCT_CATEGORY('part','',(#24));
#675=PRODUCT_DEFINITION_FORMATION_WITH_SPECIFIED_SOURCE('','',#24,.NOT_KNOWN.);
#25=PRODUCT_DEFINITION('design','',#675,#673);
#23=PRODUCT_DEFINITION_SHAPE('','',#25);
#676=SHAPE_DEFINITION_REPRESENTATION(#23,#16);
#11=DRAUGHTING_MODEL('',(),#10);
#1=MECHANICAL_DESIGN_GEOMETRIC_PRESENTATION_REPRESENTATION('',(#26),#10);
ENDSEC;
END-ISO-10303-21;
